Oops, an error
Loading. Please wait.

Jennilyn Mercado - Moments Of Love Tab

version 1
version 1

Intro

Whole song

2,564 views 1 this week
no commentswrite comment
1 2 3 4 5
3 more votes to show rating
add to favorites
launch autoscroll
font size
0
reset
how to read this tab
guitar tuner
Autoscroll
slow
fast
+/-
esc
set tempo
stop
Help us to improve Ultimate-Guitar.com Take our survey!
×
Song title: moments of love
Artist: Jennilyn Mercado
Tabbed by: Dan Lester C. Chua (collection_dlester@yahoo.com)

I tabbed this song minutes after I have watched the movie with the same title.  Really nice.

-------------.--------------------------.--------------.---------|
----------8--.---------8-10-10-12-13-12-.--12-13-12----.---------|
--------7----.-------7--------------8---.-----------8--.---------|
----7/9------.----7/9-------------------.--------------.---------|
-------------.--------------------------.--------------.---------|
-------------.--------------------------.--------------.---------|

here's the part that i love to play the most

---------12*--------------.----10-8---10---------------.---------|
-12*-10*----12*--10--8--5-.-(5)-----12---12-10-8-10----.---------|
--------------------------.----------------------------.---------|
--------------------------.----------------------------.---------|
--------------------------.----------------------------.---------|
--------------------------.----------------------------.---------|

---------12*--------------.----10-8---10---------------.---------|
-12*-10*----12*--10--8--5-.-(5)-----12---12-10-8-10----.---------|
--------------------------.----------------------------.---------|
--------------------------.----------------------------.---------|
--------------------------.----------------------------.---------|
--------------------------.----------------------------.---------|

------------------|
--13--12--8-8-----|
------------------|
------------------|
------------------|
------------------|

Enjoy..
Suggest correction
Give kudos to tab author, rate the tab!
1 2 3 4 5
comments
print report bad tab
guest
You may want to rate the tab now too:
select rating
Wanna post a correction for this tab? Suggest correction