Oops, an error
Loading. Please wait.

Jenny Bae - Beethoven Virus Bass Tab

4,104 views 3 this week
no commentswrite comment
1 2 3 4 5
3 more votes to show rating
add to favorites
launch autoscroll
font size
0
reset
guitar tuner
Autoscroll
slow
fast
+/-
esc
set tempo
stop
Help us to improve Ultimate-Guitar.com Take our survey!
×
Intro
G|---|---------------|---------------|---------------|---------------|------|
D|---|---------------|---------------|---------------|---------------|------|
A|-2-|0-0-3-0-0-5-0-0|7-0-0-8-0-0-8-7|0-0-5-0-0-3-0-0|2-0-0-3-0-2-0-0|------|
E|---|---------------|---------------|---------------|---------------|------|


G|-|-----------------|---------------|---------------|---------------|------|
D|-|o----------------|---------------|---------------|---------------|------|
A|-|o----------------|---------------|---------------|---------------|------|
E|-|--5-5-5-5-4-4-4-4|5-5-5-5-5-5-5-5|5-5-5-5-7-7-7-7|8-8-8-8-8-8-8-8|------|


G|--|----------------|---------------|---------------|----------------|-----|
D|--|----------------|---------------|---------------|---------------o|-----|
A|--|-5-5-5-5--------|---------------|6-6-6-6-7-7-7-7|---------------o|-----|
E|--|---------0-0-0-0|5-5-5-5-2-2-2-2|---------------|5-5-5-5-5-5-5-5-|-----|


G|-|-----------------|---------------|---------------|---------------|------|
D|-|o----------------|---------------|---------------|---------------|------|
A|-|o----------------|---------------|--------2-2-2-2|3-3-3-3-3-3-3-3|------|
E|-|--0-0-0-0-4-4-4-4|5-5-5-5-5-5-5-5|3-3-3-3--------|---------------|------|


G|--|----------------|---------------|---------------|----------------|-----|
D|--|----------------|---------------|---------------|---------------o|-----|
A|--|---------4-4-4-4|5-5-5-5-3-3-3-3|--------6-6-6-6|7-7-7-7-7-7-7-7o|-----|
E|--|-5-5-5-5--------|---------------|7-7-7-7--------|----------------|-----|


G|--|----------------|
D|--|----------------|
A|--|-5---5----------|
E|--|---------3---3--|


G|-|-----------------|---------------|---------------|---------------|------|
D|-|o----------------|---------------|---------------|---------------|------|
A|-|o-3-3-3-3-2-2-2-2|3-3-3-3-3-3-3-3|3-3-3-3-5-5-5-5|6-6-6-6-6-6-6-6|------|
E|-|-----------------|---------------|---------------|---------------|------|


G|--|----------------|---------------|---------------|----------------|-----|
D|--|----------------|---------------|4-4-4-4-5-5-5-5|---------------o|-----|
A|--|-8-8-8-8--------|---------------|---------------|3-3-3-3-3-3-3-3o|-----|
E|--|---------3-3-3-3|8-8-8-8-5-5-5-5|---------------|----------------|-----|


G|--|----------------|---------------|---------------|---------------|------|
D|--|----------------|---------------|4-4-4-4-5-5-5-5|---------------|------|
A|--|-8-8-8-8--------|---------------|---------------|3-3-3-3-3-3-3-3|3-----|
E|--|---------3-3-3-3|8-8-8-8-5-5-5-5|---------------|---------------|------|
Suggest correction
Give kudos to tab author, rate the tab!
1 2 3 4 5
comments
print report bad tab
guest
You may want to rate the tab now too:
select rating
Wanna post a correction for this tab? Suggest correction