Oops, an error
Loading. Please wait.

Jeremy Pate - Carl Bass Tab

82 views 1 this week
no commentswrite comment
1 2 3 4 5
3 more votes to show rating
add to favorites
launch autoscroll
font size
0
reset
guitar tuner
Autoscroll
slow
fast
+/-
esc
set tempo
stop
Help us to improve Ultimate-Guitar.com Take our survey!
×
Difficulty
intermediate
     standerd tuning E.A.D.G.
Intro
-----------------------------------------------------------------------------|
---------17-17-17----------------------------17-17-17------------------------|
------------------15-15-15-17-17-17-------------------15-15-15-17-15---------|
15-15-15----------------------------15-15-15-------------------------17-15/3-|

Brige
----------------------------------------------------------------------------|
-------5-5-5-------------------5-5-5----------------------------------------|
-------------3-3-3-5-5-5-------------3-3-3-5-3------------------------------|
-3-3-3-------------------3-3-3-----------------5-3--------------------------|

Verse
----------------------------------------------------------------------------|
-------5-----------------------5--------------------------------------------|
-------------3-----5-----------------3-----5-3------------------------------|
-3-----------------------3---------------------5-3--------------------------|
Suggest correction
Give kudos to tab author, rate the tab!
1 2 3 4 5
comments
print report bad tab
guest
You may want to rate the tab now too:
select rating
Wanna post a correction for this tab? Suggest correction