Oops, an error
Loading. Please wait.

Jessica Davis - If You Loved Me At All Tab

39 views 1 this week
no commentswrite comment
1 2 3 4 5
please rate
add to favorites
launch autoscroll
font size
0
reset
how to read this tab
guitar tuner
Autoscroll
slow
fast
+/-
esc
set tempo
stop
Help us to improve Ultimate-Guitar.com Take our survey!
×
Author
Difficulty
intermediate
I wrote this, I'm tabbing this for a friend but feel free to learn it also(:

Youtube link: http://www.youtube.com/watch?v=c1UWZUo4fMo

h = hammer on

Intro:
Pick out:(by strings, 5-4-2-3-2-3-4-3 x2) C, Em7, Am7, and G (6-5-3-4-3-4-5-4 x2) x2, then:
  C       Em7     Am7     G      D     Dsus4
e-0-------0-------0-------X------2-----3------------------------------|
B-1-------0-------1-------X------3-----3------------------------------|
G-0-x12---0-x12---2-x12---0-x4---2-x4--2-x2---------------------------|
D-2-------2-------2-------0------0-----0------------------------------|
A-3-------2-------0-------2------X-----X------------------------------|
E-0-------0-------0-------3------X-----X------------------------------|

Then
  G      D    Dsus4 Cadd9  E?     Dsus4
e-3------2    h3----3------3------3-----------------------------------|
B-3------3----------3------3------3-----------------------------------|
G-0-x8---2-x8-------0-x8---0-x3---2-x7--------------------------------|
D-0------0----------2------2------0-----------------------------------| x2!
A-2------0----------3------2------0-----------------------------------|
E-3------0----------0------0------0-----------------------------------|

^^^ End 2nd time in D,Dsus4,D

Outro: Same as intro but end in strumming C (:
Suggest correction
Give kudos to tab author, rate the tab!
1 2 3 4 5
comments
print report bad tab
guest
You may want to rate the tab now too:
select rating
Please do not post tabs as comments. Select "correction" instead!