Oops, an error
Loading. Please wait.

Jhake Vargas - Ngiti Tab

version 1
version 1

Intro

Whole song

9,639 views 12 this week
no commentswrite comment
1 2 3 4 5
excellent!
x 1
add to favorites
launch autoscroll
font size
0
reset
how to read this tab
guitar tuner
Tab Pro tools
  • play this tab
  • loop segment
  • change instrument
  • show fretboard
  • metronome
Autoscroll
slow
fast
+/-
esc
set tempo
stop
Contributor
Title: Ngiti
Artist: Jhake Vargas
Tabbed by: Mark Larry S. Saquing

C	   F	 G       Dm
e|-0------0-------3------1-|
B|-1------1-------3------3-|
G|-0------2-------0------2-|
D|-2------3-------0--------|
A|-3------x-------2--------|
E|-x------x-------3--------|


Intro:
Guitar 1: C-Dm (3x) C-F

Guitar 2:

e|------------------------------------|
B|------------------------------------|
G|-5h7-9-9--5------------7-5--5h7-7/9-|
D|---------------5--5-3-3-------------|
A|------------------------------------|
E|------------------------------------|

e|----------------------7-87------------------|
B|-8-8/10-8--5-------------8h10868------------|
G|----------------5/7-------------------7-7/9-|
D|--------------------------------------------|
A|--------------------------------------------|
E|--------------------------------------------|

e|-----------------------|
B|--------8-8/10--8-6-8--|
G|-7-7/9-----------------|
D|-----------------------|
A|-----------------------|
E|-----------------------|

Verse 1:
C		       Dm
Simple lang pala kung paano ako
    C                F
Liligaya sa mundong ito
   C       	     Dm
Ika’y patatamanin at papaligayahin
    C	                Dm
Hanggang maluha ka sa tuwa
F		G
Dahil lahat ng nararamdaman mo
Dm	       G
Ay nadarama ko rin

Chorus:
        F	    C	
Kaya ngiti ngiti ngiti aking giliw
    F	          	   C
Hanggang ang puso ko'y mabaliw
F		      C
Ngiti ngiti ang pantawag sa akin
     Dm                        F        G    C-Dm
Para puso ko’y sa’yo lamang sa’yo lamang uuwi
  Guitar 2:
    e|------------------------------|
    B|------------------------10-8--|
    G|-5h7-9-99-10-9—7h9-9-99-------|
    D|------------------------------|
    A|------------------------------|
    E|------------------------------|

         F       C	
Kaya ngiti ngiti ngiti aking giliw
    F          		   C
Hanggang ang puso ko'y mabaliw
   F		      C
Ngiti ngiti ang pantawag sa akin
     Dm                        F        G    C-Dm
Para puso ko’y sa’yo lamang sa’yo lamang uuwi
 Guitar 2:
     e|-----------------------------|
     B|------------------------10-8-|
     G|-5h7-9-99-10-9—7h9-9-99------|
     D|-----------------------------|
     A|-----------------------------|
     E|-----------------------------|

     e|-----------------------------|
     B|------------------------10-8-|
     G|-5h7-9-99-10-9—7h9-9-99------|
     D|-----------------------------|
     A|-----------------------------|
     E|-----------------------------|
	     C		F			
                 Ngiti

     e --------------------------------|
     B|--------------------------------|
     G|-5h7-9-5h7-9-7—7h9-10-1010-1010-|
     D|--------------------------------|
     A|--------------------------------|
     E|--------------------------------|
     C		F			
    Ngiti


    C			      Dm        C
e|------------------------7-87-------------|
B|-------8-8/10-8--5----------8h10868------|
G|-5-7/9-------------5/7-------------7-7/9-|
D|-----------------------------------------|
A|-----------------------------------------|
E|-----------------------------------------|
     Ngiti
     Dm               C
e|----------------------|
B|--------8-8/10--8-6-8-|
G|-7-7/9----------------|
D|----------------------|
A|----------------------|
E|----------------------|

comments
We did not receive enough feedback on this tab! Please rate:
print report bad tab
1 2 3 4 5
I want to post or [tab]
guest
You may want to rate the tab now too:
select rating
Please do not post tabs as comments. Select "correction" instead!