Oops, an error
Loading. Please wait.

Jigsaw - Puslespill-Sangen Tab

114 views 1 this week
1 commentread comment
1 2 3 4 5
please rate
add to favorites
launch autoscroll
font size
0
reset
how to read this tab
guitar tuner
Tab Pro tools
  • play this tab
  • loop segment
  • change instrument
  • show fretboard
  • metronome
×
Best way to learn
"Jigsaw - Puslespill-sangen"
Autoscroll
slow
fast
+/-
esc
set tempo
stop
Contributor
Difficulty
novice
this is the first song from my band, and it goes like this:

intro:
|---------------------------------------------------|
|---------------------------------------------------|
|---------------------------------------------------|
|---------------------------------------------------|
|-3-4-5-6-7-8-9-------------------------------------|
|-1-2-3-4-5-6-7-8-9-10-11-12-13-14-15-16-17-18-19~--|

verse:
|--------------------------------------------------------------|
|--------------------------------------------------------------|
|--------------------------------------------------------------|
|-------------------------55555-55555-99999-99999--77777-77777-|
|55555-55555-99999-99999--33333-33333-77777-77777--55555-55555-|
|33333-33333-77777-77777---------------------------------------|

|--------------------------------------|
|--------------------------------------|
|--------------------------------------|
|-------------55555-55555--------------|
|99999-99999--33333-33333-77777-77777--|
|77777-77777--------------55555-55555--| x2

chorus:
|---------------------------------------------------------------------|
|------------------------------------------------------------7575-----|
|----------------------------------------------------------------6~~--|
|------------------------------------------99999-77777-55555----------|
|77777-77777-77777-77777-55555-55555-55555-77777-55555-33333----------|
|55555-55555-55555-55555-33333-33333-33333----------------------------|

|---------------------------|
|------------------7575-----|
|----------------------6~~--|
|99999-77777-55555----------|
|77777-55555-33333----------|
|---------------------------|

fill:
|---------------------------------------------|
|141414-131313-121212-111111-----------11~~~--|
|----------------------------121112--12-------|
|----------------------------------11---------|
|---------------------------------------------|
|---------------------------------------------|

solo:
|15^15^15^15^15^15^15^15^15^15^-13^13^13^13^13^-17^17^17^-15^15^15^-|
|-------------------------------------------------------------------|
|-------------------------------------------------------------------|
|-------------------------------------------------------------------|
|-------------------------------------------------------------------|
|-------------------------------------------------------------------|

|13^13^13^-13-15-17-13-16-13-14-13-15-13--------------------------------|
|----------------------------------------15-13-15-12-10------------11^--|
|---------------------------------------------------------12-10-11------|
|-----------------------------------------------------------------------|
|-----------------------------------------------------------------------|
|-----------------------------------------------------------------------|
                                                with wah
|10^--9^-----------------------------------------------------------------|
|----------10^---12^---15^--14^-------17^--15^-12-14-11-11-13-10-10-12-9-|
|--------------------------------14^-------------------------------------|
|------------------------------------------------------------------------|
|------------------------------------------------------------------------|
|------------------------------------------------------------------------|
                         with wah
|--------------------------------------------------------------|
|-----10-7---6-------5-4-32--32--------------------11^--13-11^-|
|10-8------8---6-6-5-------32--3--3^--5^--7^--12^--------------|
|-------------------------------32-----------------------------|
|--------------------------------------------------------------|
|--------------------------------------------------------------|

|------------------------------------------------------|
|--15-14^--18-17^--17-16^--201920^^-201920^^-201920^^--|
|------------------------------------------------------|
|------------------------------------------------------|
|------------------------------------------------------|
|------------------------------------------------------|

|------------------------------------------------------|
|2019201920192019201920192019201920192019-20191715~~~--|
|------------------------------------------------------|
|------------------------------------------------------|
|------------------------------------------------------|
|------------------------------------------------------|

|-------------------------------------------------------------------------|
|15^-15^15^15^--15^-15^-15^----15^15^15^15^15^--15^15^-15^^-15^-15^----15^|
|-------------------------------------------------------------------------|
|-------------------------------------------------------------------------|
|-------------------------------------------------------------------------|
|-------------------------------------------------------------------------|

end:
|------------------------------------------------------|
|------------------7575---------------------7575-------|
|----------------------6^-----------------------6^-----|
|99999-77777-55555--------99999-77777-55555--------99--|
|77777-55555-33333--------77777-55555-33333--------77--|
|------------------------------------------------------|

|------------------------------------|
|------------------7575--------------|
|----------------------6^------------|
|99999-77777-55555--------99--99--9--|
|77777-55555-33333--------77--77--7--|
|------------------------------------|

the song goes like this:
                        intro
                        verse
                        chorus
                        fill
                        verse
                        chorus
                        solo
                        chorus
                        end.


thank you.
comments
We did not receive enough feedback on this tab! Please rate:
print report bad tab
1 2 3 4 5
1 comment total.
0 reply
Guitar Guy 93 wrote on August 24 2008, 05:37 pm

you suck

I want to post or [tab]
guest
You may want to rate the tab now too:
select rating
Please do not post tabs as comments. Select "correction" instead!