Oops, an error
Loading. Please wait.

Jimbob Porter - Maddness Medley Bass Tab

63 views 1 this week
no commentswrite comment
1 2 3 4 5
please rate
add to favorites
launch autoscroll
font size
0
reset
guitar tuner
Autoscroll
slow
fast
+/-
esc
set tempo
stop
Help us to improve Ultimate-Guitar.com Take our survey!
×
Author
Difficulty
advanced
Baggey Trousers
Intro
G|-----------------------|
D|-----------------------|
A|--2-1-----55555--2-1---|
E|------4-1------------4-|

Verse
G|--------------------------------|
D|-------------------33333--------|
A|---33333---66666-1-------2-1----|
E|-1-------4-------------------4--|

Chorus
G|-------232323-----------------232323---------------|
D|------------------232323---------------------------|
A|--1-1--------------------1-1----------33333—33333--|
E|--------------1-1----------------------------------|

Run Up
G|----------|
D|----------|
A|--3---3-4-|
E|----------|

Saxaphone Solo
G|----------------------|
D|----------------------|
A|--555--777--555--222--|
E|----------------------|

Run Down
G|-----------|
D|-----------|
A|--3-2-1----|
E|--------4--|

End
G|--------------------------------------------------|
D|--------------------------------------------------|Repeat 3X
A|------------------------------------------2-1-0---|
E|-1111111111111-4444444444444-66666666666--------4-|

G|--------------------------------------------------|
D|--------------------------------------------------|4th Time
A|--------------------------------------------------|
E|-1111111111111-4444444444444-66666666666----------|

Night Boat to Cairo
Drum fill 
Intro
G|--------0-----------0----|
D|-----2-----------2-------|
A|--3-------4-1-3-------4--|
E|-------------------------|

Verse Part 1
G|--------0------------------|
D|-----2----2-----------3----|
A|--3----------1----4-4---4--|
E|---------------------------|

Verse part 2
G|---------------------------|
D|---------------0-----------|
A|------3------2---2---------|
E|--1-4---4--4---------------|

Run Down
G|---------------------------|
D|-1111111-------------------|
A|---------4-3-3-3-3---------|
E|---------------------------|

Verse Part 1
G|--------0------------------|
D|-----2----2-----------3----|
A|--3----------1----4-4---4--|
E|---------------------------|

Verse part 2
G|---------------------------|
D|---------------0-----------|
A|------3------2---2---------|
E|--1-4---4--4---------------|

Run Down
G|---------------------------|
D|-1111111-------------------|
A|---------4-3-3-3-3---------|
E|---------------------------|

Run Up
G|-------------|
D|-------------|
A|--3-4-6-7-8--|
E|-------------|

Saxaphone Solo
G|----2-5-2-----3----|
D|--3-------1-4---4--|
A|-------------------|
E|-------------------|

End
G|--------0-----------0----|
D|-----2-----------2-------|
A|--3-------4-1-3-------4--|
E|-------------------------|

G|--------0----|
D|------2------|
A|--1-3----4---|
E|-------------|

House of Fun
Drum fill
Intro
G|----221212----------|
D|-------------665656-|Repeat 3X’s
A|--5--------3--------|
E|--D--------C--------|

G|-------------------|
D|---443434---332323-|
A|-2--------1--------|
E|-B--------Bb-------|

Verse 
G|----221212----------|
D|-------------665656-|Repeat 2X
A|--5--------3--------|
E|--D--------C--------|

G|----554545---443434-|
D|--3--------2--------|
A|--------------------|Repeat 2X
E|--------------------|

Interlude
G|----221212----------|
D|-------------665656-|1X
A|--5--------3--------|
E|--D--------C--------|

Verse
G|----221212----------|
D|-------------665656-|Repeat 2X
A|--5--------3--------|
E|--D--------C--------|

G|----554545---443434-|
D|--3--------2--------|
A|--------------------|Repeat 2X
E|--------------------|

Chorus
G|-----------------------------------------------|
D|--22----22----22----22----44----44----22-------|
A|-----33----22----33----33----55----44----33-22-|
E|-----------------------------------------------|

Interlude 2X
G|----221212----------|
D|-------------665656-|
A|--5--------3--------|
E|--D--------C--------|
Verse
G|----221212----------|
D|-------------665656-|Repeat 2X
A|--5--------3--------|
E|--D--------C--------|

G|----554545---443434-|
D|--3--------2--------|
A|--------------------|Repeat 2X
E|--------------------|

Chorus
G|-----------------------------------------------|
D|--22----22----22----22----44----44----22-------|
A|-----33----22----33----33----55----44----33-22-|
E|-----------------------------------------------|

Interlude
G|----221212----------|
D|-------------665656-|Repeat 2X’s
A|--5--------3--------|
E|--D--------C--------|

G|-------------------|
D|---443434---332323-|
A|-2--------1--------|
E|-B--------Bb-------|

Middle 8
G|--2222-----2222----44444--00000--0000--222--|
D|-------111-----444--------------------------|
A|--------------------------------------------|
E|--------------------------------------------|

G|----221212----------|
D|-------------665656-|Repeat 4X
A|--5--------3--------|
E|--D--------C--------|

G|----554545---443434-|
D|--3--------2--------|
A|--------------------|Repeat 1X
E|--------------------|

Last Chorus
G|-----------------------------------------|
D|22--22--22--22--44--44--22--22--22--22---|
A|--33--22--33--22—-55--44--33--22--33--22-|
E|-----------------------------------------|

G|--------------------------------|
D|22--22--22--22--44--44—-22------|
A|--33--22--33--22—-55—-44—-3-5---|
E|------------------------------3-|
Suggest correction
What's this?
You can suggest a correction to this tab. Community and Mods will review your correction and vote to approve or reject it.
comments
We did not receive enough feedback on this tab! Please rate:
print report bad tab
1 2 3 4 5
guest
You may want to rate the tab now too:
select rating
Please do not post tabs as comments. Select "correction" instead!