Oops, an error
Loading. Please wait.

Jimbob Porter - Use Somebody Bass Tab

251 views 1 this week
no commentswrite comment
1 2 3 4 5
please rate
add to favorites
launch autoscroll
font size
0
reset
guitar tuner
Tab Pro tools
  • play this tab
  • loop segment
  • change instrument
  • show fretboard
  • metronome
×
Best way to learn
"Jimbob Porter - Use Somebody"
Autoscroll
slow
fast
+/-
esc
set tempo
stop
Contributor
Difficulty
Intro
G|-----------------------------------------|
D|-----------------------------------------| Repeat 2X
A|-3-33-3-33-------------------------------|
E|-----------0-00-0-00-1-11-1-11-1-11-1-11-|

G|------------------------------------------------------------------------|
D|------------------------------------------------------------------------|
A|-0-00-0-00-3-33-3-33---------------------0-00-0-00-3-33-3-33------------|
E|---------------------1-11-1-11-1-11-1-11---------------------13\--------|

1st Verse (guitar only) bass comes back in after he says someone like you
G|-----------------------------------------|
D|-----------------------------------------| Repeat 2X
A|-3-33-3-33-------------------------------|
E|-----------0-00-0-00-1-11-1-11-1-11-1-11-|

G|-----------------------------------------|
D|-----------------------------------------|Repeat 2X
A|-0-00-0-00-3-33-3-33---------------------|
E|---------------------1-11-1-11-1-11-1-11-|

G|-----------------------------------------|
D|-----------------------------------------| Repeat 2X
A|-3-33-3-33-------------------------------|
E|-----------0-00-0-00-1-11-1-11-1-11-1-11-|

G|-----------------------------------------|
D|-----------------------------------------|Repeat 2X
A|-0-00-0-00-3-33-3-33---------------------|
E|---------------------1-11-1-11-1-11-1-11-|

Verse 2 (only Bass, Drums & Vocals)
G|---------5-------------------------------|
D|------5----------------------------------| Repeat 2X
A|-333-------------------------------------|
E|-----------0-00-0-00-1-11-1-11-1-11-1-11-|

G|-----------------------------------------|
D|-----------------------------------------|Repeat 2X
A|-0-00-0-00-3-33-3-33---------------------|
E|---------------------1-11-1-11-1-11-1-11-|

G|-----------------------------------------|
D|-----------------------------------------| Repeat 2X
A|-3-33-3-33-------------------------------|
E|-----------0-00-0-00-1-11-1-11-1-11-1-11-|

G|-----------------------------------------|
D|-----------------------------------------|Repeat 2X
A|-0-00-0-00-3-33-3-33---------------------|
E|---------------------1-11-1-11-1-11-1-11-|

Bridge
G|-----------------------------------------| Repeat 2X G|------|
D|-----------------------------------------| Second    D|------|
A|-55555555555555555555--------------------| time Add  A|-2222-|
E|---------------------2222222222222222222-| to end    E|------| 

Solo
G|-----------------------------------------|
D|-----------------------------------------| Repeat 2X
A|-3-33-3-33-------------------------------|
E|-----------0-00-0-00-1-11-1-11-1-11-1-11-|

G|----------------------------------------------|
D|----------------------------------------------|Repeat 2X
A|-0-00-0-00-3-33-3-33--------------------------|
E|---------------------1-11-1-11-1-11-1-11--13\-|
comments
We did not receive enough feedback on this tab! Please rate:
print report bad tab
1 2 3 4 5
I want to post or [tab]
guest
You may want to rate the tab now too:
select rating
Please do not post tabs as comments. Select "correction" instead!