Oops, an error
Loading. Please wait.

Jimbob Porter - Whiskey In The Jar Bass Tab

494 views 1 this week
no commentswrite comment
1 2 3 4 5
3 more votes to show rating
add to favorites
launch autoscroll
font size
0
reset
guitar tuner
Autoscroll
slow
fast
+/-
esc
set tempo
stop
Help us to improve Ultimate-Guitar.com Take our survey!
×
Author
Difficulty
Intro
G|------------------------------------------------------|
D|------------------------------------------------------|
A|-5555555555-----------------5555555555----------------|
E|------------1111111111111-0------------1111111111111--|

Verse
G|---------------------------------------|
D|---------------------------------------|
A|----------------555555555-3-111111111--|Repeat 2X
E|-111111111111-0------------------------|

Intro
Verse

Chorus
G|--------------------------------------------------------------------|
D|--------------------------------------------------------------------|
A|--333333333-2-11111111111111111111111111111111111-------------------|
E|--------------------------------------------------11111111111111-0--|

Intro
Verse
Chorus
Intro
Verse
Chorus

Bridge
G|--------------|------------|------------|
D|--------------|------------|------------|
A|--------------|5-----------|1-----------|Repeat 2X
E|-1------------|------------|------------|

Chorus
Outro
G|-------------------------------------------------------------------------|
D|-------------------------------------------------------------------------|
A|-------------------------------------------------------------------------|
E|11111111111111111111111111111111111111111111111111111111111111111--------|
Suggest correction
Give kudos to tab author, rate the tab!
1 2 3 4 5
comments
print report bad tab
guest
You may want to rate the tab now too:
select rating
Wanna post a correction for this tab? Suggest correction