Oops, an error
Loading. Please wait.

Jimmy Was A Parachuter tab

55 views 3 this week
no commentswrite comment
1 2 3 4 5
3 more votes to show rating
add to favorites
×
Save as Personal and add changes to this tab that will be seen only by you. Learn more ›
×
You can save this tab as Personal to edit and correct it or add notes. All changes will be seen only by you. Learn more »
launch autoscroll
font size
0
reset
how to read this tab
guitar tuner
edit
Autoscroll
slow
fast
+/-
esc
set tempo
stop
verse

e|------------3-5-7-7-7-5-3-0-0-0-2-3-2-3-0---0-------------------3-5-7-7-7-5-3-3-3-5-5-5-3-2-3--|
B|3-3-3-1-0-3-------------------------------3---3-1-0-3-3-3-1-0-3---------------------------3----|
G|------------------------------------------------------------------------------------------2----|
D|-----------------------------------------------------------------------------------------------|
A|----------------------------------------------------------------------------------------2---2--|
E|----------------------------------------------------------------------------------------1---1--|


chorus

e|--------3-5-7-7-7-5-3-0-2-3-2-3-0---0---------------3-5-7-7-7-5-3-3-3-5-5-5-3-2-3-----|
B|3-1-0-3---------------------------3---3-1-0-3-1-0-3---------------------------3-------|
G|------------------------------------------------------------------------------2-------|
D|--------------------------------------------------------------------------------------|
A|----------------------------------------------------------------------------2---3-----|
E|----------------------------------------------------------------------------3---3-----|

Lyrics 

Jimmy was a parachuter in the RAF 
Jimmy was a parachuter in the RAF
Jimmy was a parachuter in the RAF
and he ain't gonna jump no more


Chorus

Glory glory what a heck of a way to die
Glory glory what a heck of a way to die 
Glory glory what a heck of a way to die 
and he ain't gonna jump no more 


Verse


He jumped from forty thousand feet without a parachute
He jumped from forty thousand feet without a parachute 
He jumped from forty thousand feet without a parachute 
and he ain't gonna jump no more 

Chours

Glory glory what a heck of a way to die
Glory glory what a heck of a way to die 
Glory glory what a heck of a way to die 
and he ain't gonna jump no more 
 
Verse 

He landed on the runway like a pile of strawberry jam
He landed on the runway like a pile of strawberry jam 
He landed on the runway like a pile of strawberry jam 
and he ain't gonna jump no more 

Chorus

Glory glory what a heck of a way to die
Glory glory what a heck of a way to die 
Glory glory what a heck of a way to die 
and he ain't gonna jump no more 


Verse 

They scooped him off the runway with a rusty knife and fork
They scooped hum off the runway with a rusty knife and fork
They scooped him of the runway with a rust knife and fork 
and he ain't gonna jump no more

Chorus 

Glory glory what a heck of a way to die
Glory glory what a heck of a way to die 
Glory glory what a heck of a way to die 
and he ain't gonna jump no more 

Verse 

They put him in an envolope and sent him home to mum
They put him in an envolope and sent him home to mum
They put him in an envolope and sent him home to mum
and he ain't gonna jump no more 

Chorus

Glory glory what a heck of a way to die
Glory glory what a heck of a way to die 
Glory glory what a heck of a way to die 
and he ain't gonna jump no more 
 

Verse

She put him on the mantle piece with all the ornaments 
She put him on the mantle piece with all the ornaments
She put him on the mantle piece wiht all the ornaments
and he ain't gonna jump no more

Chorus

Glory glory what a heck of a way to die
Glory glory what a heck of a way to die 
Glory glory what a heck of a way to die 
and he ain't gonna jump no more 

Verse 

Jimmy was a parachuter in the RAF
Jimmy was a parachuter in the RAF
Jimmy was a parachuter in tht RAF 
and he ain't gonna jump no more 

Chorus

Glory glory what a heck of a way to die
Glory glory what a heck of a way to die 
Glory glory what a heck of a way to die 
and he ain't gonna jump no mor....e

            
            
Suggest correction
Creating personal tab
Creating personal tab
You can edit any tab online and save it as your Personal.

You can edit, replace or remove any tab part or add personal notes – all changes will be seen only by you.

Personal tabs can be accessed anytime from any device, even offline.
Learn more »
Give kudos to tab author, rate the tab!
1 2 3 4 5
comments
print report bad tab
guest
You may want to rate the tab now too:
select rating
Wanna post a correction for this tab? Suggest correction