Oops, an error
Loading. Please wait.

Josephine Zwaan - Shoo Away Tab

128 views 1 this week
1 commentread comment
1 2 3 4 5
please rate
add to favorites
launch autoscroll
font size
0
reset
how to read this tab
guitar tuner
Autoscroll
slow
fast
+/-
esc
set tempo
stop
Help us to improve Ultimate-Guitar.com Take our survey!
×
Author
Difficulty
Capo
intermediate
1st fret
-------------------------------------------------------------------------------
                             Shoo Away - Josephine Zwaan
-------------------------------------------------------------------------------
Tabbed by: Tijmen Zwaan
E-mail: tijmen.zwaan@gmail.com

From the soundtrack of tv-series: A'dam - E.V.A

Tuning: Standard
Capo: 1

Intro
  e|------------|------------|--------2---|------0-----|
  B|------1-----|------1-----|----3-----3-|----1---1---|
  G|----2---2---|----0---0---|--2---------|--2-------2-|
  D|--2-------2-|--2-------2-|0-----2-----|3-----------|
  A|0-----------|3-----------|------------|------------|
  E|------------|------------|------------|------------|
  
  e|------------|------1-----|------------|------------|
  B|------1-----|0-------0---|------1-----|------1---1-|
  G|----0---0---|----0-----0-|----0---0---|----0-------|
  D|--2-------2-|------------|--2-------2-|--2---------|
  A|3-----------|--2---------|3-----------|3-------2---|
  E|------------|------------|------------|------------|

Verse
  Yesterday's gone        and I'm all alone.
  |------------|------------|--------2---|------0-----|
  |------1-----|------1-----|----3-----3-|----1---1---|
  |----2---2---|----0---0---|--2---------|--2-------2-|
  |--2-------2-|--2-------2-|0-----2-----|3-----------|
  |0-----------|3-----------|------------|------------|
  |------------|------------|------------|------------|
  
 I bleed but my mind's set in stone.                It's
  |------------|------1-----|------------|------------|
  |------1-----|0-------0---|------1-----|------1---1-|
  |----0---0---|----0-----0-|----0---0---|----0-------|
  |--2-------2-|------------|--2-------2-|--2---------|
  |3-----------|--2---------|3-----------|3-------2---|
  |------------|------------|------------|------------|

  hurting like hell.     It's hurting like god.      I cried me a river      but
  |------------|------------|--------2---|------0-----|------------|------3-----|
  |------1-----|------1-----|----3-----3-|----1---1---|------1-----|0-------0---|
  |----2---2---|----0---0---|--2---------|--2-------2-|----0---0---|----0-----0-|
  |--2-------2-|--2-------2-|0-----2-----|3-----------|--2-------2-|------------|
  |0-----------|3-----------|------------|------------|3-----------|--2---------|
  |------------|------------|------------|------------|------------|------------|

   I~           will~     be fine.
  |------1-----|------------|------------|3-----------|
  |----3---3---|------1-----|------3-----|------------|
  |--2-------2-|----0---0---|----0---0---|------------|
  |0-----------|--2-------2-|----------0-|------------|
  |------------|3-----------|--2---------|------------|
  |------------|------------|3-----------|------------|


Chorus
  E                        Am
  I should be wearing some make-up today.
  E                      Am
  Love is around calling me out to play.
  Dm            G            C          F
  You should be carrying your heart on a plate.
  E                      G
  Love is around scaring bleakness away.

  /*Fingerstyle:*/
  C           Am
  Shoo, shoo away.
  C           Am
  Shoo, shoo away.

        
Verse
  No-one will rip my soul out no more.
  The wolves will stop at my door.
  'Cause love came around, and threw them a bone.
  We thought that was weird but we're not quite sure.

Chorus
  I should be wearing some make-up today.
  Love is around calling me out to play.
  You should be carrying your heart on a plate.
  E                       G
  Hungry for love like a wolf for a prey.

  C           Am
  Shoo, shoo away.
  C           Am
  Shoo, shoo away.
  C            Am               C         Am 
   Shoo, shoo away. I'm here to stay.
Suggest correction
Give kudos to tab author, rate the tab!
1 2 3 4 5
comments
print report bad tab
1 comment total.
0 reply
myrthekleingeld 10 wrote on September 5 2014, 12:28 pm

lekker joos!

guest
You may want to rate the tab now too:
select rating
Please do not post tabs as comments. Select "correction" instead!