Oops, an error
Loading. Please wait.

Kaboom Goes The Bomb - The Evel Kanevel Of Our Generation tab

113 views 1 this week
no commentswrite comment
1 2 3 4 5
2 more votes to show rating
add to favorites
×
Save as Personal and add changes to this tab that will be seen only by you. Learn more ›
×
You can save this tab as Personal to edit and correct it or add notes. All changes will be seen only by you. Learn more »
launch autoscroll
font size
0
reset
how to read this tab
guitar tuner
edit
Autoscroll
slow
fast
+/-
esc
set tempo
stop
-------------------------------------------------------------------------------
        Evel Kanevel Of Our Generation - Kaboom Goes The Bomb
-------------------------------------------------------------------------------
Tabbed by:KLOUD F-13
Email:heavymetaljunkie15@gmail.com

This is a tab to a song from my band.
I thought it was good so I posted it.
E-mail me and I'll try to get you a copy of the song, or the guitar part anyways.
The bass part is pretty much the base notes of the guitar power chords.
For the dead notes, just dont play. 
And the prechorus should line up with the unmuted notes.
And for the solo, play the chorus riff. 
You could use two guitars but we only have one.

Tuning: Drop D

Intro
e|------------------------------------------------------------------------------|
B|------------------------------------------------------------------------------|
G|------------------------------------------------------------------------------| 
D|------------------------------------------------------------------------------| 
A|------------------------------------------------------------------------------|
D|5---5-----------8---8-----------3---3-----------0---0-------3-4---------------|

  1 + 2 + 3 + 4 + 1 + 2 + 3 + 4 + 1 + 2 + 3 + 4 + 1 + 2 + 3 + 4 +

Chorus Riff
e|------------------------------------------------------------------------------------|
B|------------------------------------------------------------------------------------|
G|--------------------------------------------------------1st 3 Times----4th Time-----|
D|5-5-5-5-X-X-X-X-8-8-8-8-X-X-X-X-3-3-3-3-X-X-X-X-0-0-0-0-|X-X-3-4|------X-X-15-16----| 4X
A|5-5-5-5-X-X-X-X-8-8-8-8-X-X-X-X-3-3-3-3-X-X-X-X-0-0-0-0-|X-X-3-4|------X-X-15-16----|
D|5-5-5-5-X-X-X-X-8-8-8-8-X-X-X-X-3-3-3-3-X-X-X-X-0-0-0-0-|X-X-3-4|------X-X-15-16----|

  1 + 2 + 3 + 4 + 1 + 2 + 3 + 4 + 1 + 2 + 3 + 4 + 1 + 2 + 3 + 4 +        3 + 4  +

Verse
e|---------------------------------------------------------------------------|
B|---------------------------------------------------------------------------|
G|---------------------------------------------------------------------------|
D|5-5-5-5-5-5-5-5-8-8-8-8-8-8-8-8-5-5-5-5-5-5-5-5-3-3-3-3-3-3-3-3------------| 4X
A|5-5-5-5-5-5-5-5-8-8-8-8-8-8-8-8-5-5-5-5-5-5-5-5-3-3-3-3-3-3-3-3------------|
D|5-5-5-5-5-5-5-5-8-8-8-8-8-8-8-8-5-5-5-5-5-5-5-5-3-3-3-3-3-3-3-3------------|
  . . . . . . . . . . . . . . . . . . . . . . . . . . . . . . . .

Pre-chorus
e|---------------------------------------------------------------------------|
B|---------------------------------------------------------------------------|
G|---------------------------------------------------------------------------|
D|5XX5XX5XX5X5X5X-5XX5XX5XX5X8888-5XX5XX5XX5X5X5X-5XX5XX5XX5X3334------------|
A|5XX5XX5XX5X5X5X-5XX5XX5XX5X8888-5XX5XX5XX5X5X5X-5XX5XX5XX5X3334------------|
D|5XX5XX5XX5X5X5X-5XX5XX5XX5X8888-5XX5XX5XX5X5X5X-5XX5XX5XX5X3334------------|
    <-------------Triplets------------------------------>

Chorus Riff 4X

Verse 4X

Prechorus

e|------------------------------11h13-----11h13--6-6-8-6-10-8-6-15br\--------|
B|---------------3-6h88888-11h13-----11h13-------8-8-6-6-6--6-6-15br\--------|
G|-3-3h5-3---3-5-------------------------------------------------------------|
D|---------5-----------------------------------------------------------------|
A|---------------------------------------------------------------------------|
D|---------------------------------------------------------------------------|

e|-----------------------------------------------------3h6-6/15~-------------|
B|-------------------------------------------------3h6-----------------------|
G|---------------------------------------------3h5---------------------------|
D|--------------5br-5p3p0h3/15~-------15\3-3h5-------------------------------|
A|--------3--3h5-------------------------------------------------------------|
D|-5---5h7-------------------------------------------------------------------|

Chorus Riff 4X

Verse 4X

Chorus Riff (W/o dead notes) 

End on
e|--------|
B|--------|
G|--------| 
D|---5~---| 
A|---5~---|
D|---5~---|


| /  slide up
| \  slide down
| h  hammer-on
| p  pull-off
| ~  hold note
| +  harmonic
| x  Mute note
===============================================================================

            
            
Suggest correction
Creating personal tab
Creating personal tab
You can edit any tab online and save it as your Personal.

You can edit, replace or remove any tab part or add personal notes – all changes will be seen only by you.

Personal tabs can be accessed anytime from any device, even offline.
Learn more »
Give kudos to tab author, rate the tab!
1 2 3 4 5
comments
print report bad tab
guest
You may want to rate the tab now too:
select rating
Wanna post a correction for this tab? Suggest correction