Oops, an error
Loading. Please wait.

Kaoma - Lambada Tab

version 1
version 1

Whole song

93,749 views 57 this week
1 commentread comment
1 2 3 4 5
x 9
add to favorites
launch autoscroll
font size
0
reset
how to read this tab
guitar tuner
Autoscroll
slow
fast
+/-
esc
set tempo
stop
Help us to improve Ultimate-Guitar.com Take our survey!
×
Author
|-7--5------|-0-3-2-0-0--|---------|-7--5------|
|-----8-7-5-|--------3-0-|0--------|-----8-7-5-|
|-----------|-----------2|---------|-----------|
|-----------|------------|---------|-----------|
|-----------|------------|---------|-----------|
|-----------|------------|---------|-----------|


|-0-3-2-0-0--|---------|-5-5---0-|-7-5---0-|
|--------3-0-|0--------|----8---8|----8---8|
|-----------2|---------|-----5---|-----5---|
|------------|---------|---------|---------|
|------------|---------|---------|---------|
|------------|---------|---------|---------|


|----------|---------|-5-5---0-|-7-5---0-|
|75------5-|5--------|----8---8|----8---8|
|--7--7-7-7|---------|-----5---|-----5---|
|----------|---------|---------|---------|
|----------|---------|---------|---------|
|----------|---------|---------|---------|


|----------|---------|-7--5------|-0-3-2-0-0--|
|75------5-|875------|-----8-7-5-|--------3-0-|
|--7--7-7-7|---------|-----------|-----------2|
|----------|---------|-----------|------------|
|----------|---------|-----------|------------|
|----------|---------|-----------|------------|


|---------|---------|
|---------|---------|
|0--------|---------|
|---------|---------|
|---------|---------|
|---------|---------|
Suggest correction
comments
print report bad tab
1 comment total.
+1 reply
blackguitar88 10 Jul 04, 2013 01:09 PM

|-0320-0--|---------|-5-5-5----|----7-5----|---------|------------|
|-----3-0-|0--------|-------8--|--5-----8--|5-8-7-5--|--5---875---|
|--------2|---------|---------5|5---------5|--------7|7---7-------|
|---------|---------|----------|-----------|---------|------------|
|---------|---------|----------|-----------|---------|------------|
|---------|---------|----------|-----------|---------|------------|

guest
You may want to rate the tab now too:
select rating
Wanna post a correction for this tab? Suggest correction