Oops, an error
Loading. Please wait.

Kelsey - I Dont Want This tab

84 views 1 this week
no commentswrite comment
1 2 3 4 5
3 more votes to show rating
add to favorites
×
Save as Personal and add changes to this tab that will be seen only by you. Learn more ›
×
You can save this tab as Personal to edit and correct it or add notes. All changes will be seen only by you. Learn more »
launch autoscroll
font size
0
reset
how to read this tab
guitar tuner
edit
Autoscroll
slow
fast
+/-
esc
set tempo
stop
Author
-------------------------------------------------------------------------------
                             I Don't Want This - Kelsey
-------------------------------------------------------------------------------

This is an original song written about the pain i had to suffer through upon
completing my theory and piano training. 
i would fail every theory exam, and then spend months studying to pass the second time.
because of that, i spent 4 years practicing for my ARCT and to top it all off, i 
ended up with a shitty mark. 
This might not mean anything to you guys, but for me, it literally broke me down.
throughout the whole experience, i learned to push all my negative energy towards playing guitar.
and because of that, it gives me a passion to live and to one day pursue music as a career.

Tabbed by: rockobsesse  
Email: kelseyluo@hotmail.com

VERSE 1
                          
There was this young girl, i knew/she wanted the whole world, to stand in her shoes
Why can't they feel, my pain? as she screamed into the air

   D-              A+            Bb+            C+ 
e|5555-5555-5555-5555-5555-5555-1111-1111-1111-3333-3333-3333|
B|6666-6666-6666-5555-5555-5555-3333-3333-3333-5555-5555-5555|
G|7777-7777-7777-6666-6666-6666-3333-3333-3333-5555-5555-5555|
D|7777-7777-7777-7777-7777-7777-3333-3333-3333-5555-5555-5555|
A|5555-5555-5555-7777-7777-7777-1111-1111-1111-3333-3333-3333|
E|---------------5555-5555-5555------------------------------|
                                                     
CHORUS
               
I don't want this, at all/i just wanna do my own thing, that's all
I've got nothing to prove/ and everything to lose/so just leave me alone
just leave me alone

   Bb+            C+             D-             A+
e|1111-1111-1111-3333-3333-3333-5555-5555-5555-5555-5555-5555|
B|3333-3333-3333-5555-5555-5555-6666-6666-6666-5555-5555-5555|
G|3333-3333-3333-5555-5555-5555-7777-7777-7777-6666-6666-6666|
D|3333-3333-3333-5555-5555-5555-7777-7777-7777-7777-7777-7777|
A|1111-1111-1111-3333-3333-3333-5555-5555-5555-7777-7777-7777|
E|---------------------------------------------5555-5555-5555|

VERSE 2: repeat verse 1 chords
            
As she got older, she grew wiser/but she never broke free from her thoughts
They tell her it's a benefit/and that she needs it/but their dreams are not her own

CHORUS

BRIDGE

e|----6-6-----6-6-8-6-5-3-1-0-1--0-1-3--8----13-12-10-8-10---|
B|6-6-----6-6------------------------------------------------|
G|-----------------------------------------------------------|
D|-----------------------------------------------------------|
A|-----------------------------------------------------------|
E|-----------------------------------------------------------|

e|------------6--5-3-1-0-1----------------------5-3-1-0------|
B|--------5-5---------------2-3-5------5h6p5------------3----|
G|0-0-3-3-------------------------3---3----------------------|
D|----------------------------------5------------------------|
A|-----------------------------------------------------------|
E|-----------------------------------------------------------|

CHORUS

OUTRO

e|--1-3-1---1-3-1--131---1-3-1---1-3-1--131------------------|
B|3-------3-------2----3-------3-------2----3----------------|
G|-----------------------------------------------------------|
D|-----------------------------------------------------------|
A|-----------------------------------------------------------|
E|-----------------------------------------------------------|

************************************

| /   slide up
| \   slide down
| h   hammer-on
| p   pull-off
| ~   vibrato
| +   harmonic
| x   Mute note
| b   Bend
| pb  Pre-bend
| br  Bend release
| pbr Pre-bend release
| brb Bend release bend

************************************  
Suggest correction
Creating personal tab
Creating personal tab
You can edit any tab online and save it as your Personal.

You can edit, replace or remove any tab part or add personal notes – all changes will be seen only by you.

Personal tabs can be accessed anytime from any device, even offline.
Learn more »
Give kudos to tab author, rate the tab!
1 2 3 4 5
comments
print report bad tab
guest
You may want to rate the tab now too:
select rating
Wanna post a correction for this tab? Suggest correction