Oops, an error
Loading. Please wait.

Ken Ashcorp - Absolute Territory bass

version 2
version 2

Whole song

2,725 views 6 this week
no commentswrite comment
1 2 3 4 5
3 more votes to show rating
add to favorites
×
Save as Personal and add changes to this tab that will be seen only by you. Learn more ›
×
You can save this tab as Personal to edit and correct it or add notes. All changes will be seen only by you. Learn more »
launch autoscroll
font size
0
reset
guitar tuner
edit
Autoscroll
slow
fast
+/-
esc
set tempo
stop
Author
Difficulty
Broken down line-by-line. This is my first tab and I'm not sure how well it reads, but 
after listening to this song I felt compelled to learn it and write it down. Here's to 
you, Ken. Keep making awesome music about shit you love.

Intro
G|--------------------------------|
D|5--5--5--5--1---3--3--3--3--4-4-|
A|--------------3-----------------|
E|--------------------------------|

G|---------------------------------|
D|5--5--5--5--1---3--3--3--3--4444-|
A|--------------3------------------|
E|---------------------------------|

G|--------------------------------|
D|5-5---3-5-5---3-5-5---3/5-8-0-0-|
A|--------------------------------|
E|--------------------------------|

G|--------------------------------|
D|1-1---0-1-1---0---------3-3---3-|
A|----------------3-3---3---------|
E|--------------------------------|

G|--------------------------------|
D|5-5---3-5-5---3-5-5---3/5-8-0-0-|
A|--------------------------------|
E|--------------------------------|

G|--------------------------------|
D|1-1---0-1-1---0---------3-3-----|
A|----------------3-3---3---------|
E|--------------------------------|

Verse 1
She's got a fetish for fine art
G|--------------------------------|
D|5-5---3-5-5---3-5-5---3/5-8-0-0-|
A|--------------------------------|
E|--------------------------------|

A pair of kneesocks and an oversized sweatshirt
G|--------------------------------|
D|1-1---0-1-1---0---------4-4---4-|
A|----------------3-3---3---------|
E|--------------------------------|

Yeah she goes right to my heart
G|--------------------------------|
D|5-5---3-5-5---3-5-5---3/5-8-0-0-|
A|--------------------------------|
E|--------------------------------|

She comes a-knocking with her stocking and I get hurt
G|--------------------------------|
D|1-1---0-1-1---0---------4-4-4-4-|
A|----------------3-3---3---------|
E|--------------------------------|

I get the feeling I'm in deep
G|--------------------------------|
D|5-5---3-5-5---3-5-5---3/5-8-0-0-|
A|--------------------------------|
E|--------------------------------|

Troubled waters but they're only thigh-high
G|--------------------------------|
D|1-1---0-1-1---0---------4-4---4-|
A|----------------3-3---3---------|
E|--------------------------------|

This kind of girl don't get no sleep
G|--------------------------------|
D|5-5---3-5-5---3-5-5---3/5-8-0-0-|
A|--------------------------------|
E|--------------------------------|

Don't wake your father, skip the starter, strap those garters up, oh my my!
G|--------------------------------|
D|1-1---0-1-1---0-----------------|
A|----------------3-3---3---------|
E|--------------------------------|

Bridge
G|--------------------------------|
D|--------------------3/5---8---0-|
A|--------------------------------|
E|3-------------------------------|

G|--------------------------------|
D|1-------------1-0-----0---------|
A|------------------------3-----3-|
E|--------------------------------|

G|--------------------------------|
D|--------------------3/5---8---0-|
A|--------------------------------|
E|3-------------------------------|

G|---------------------------------|
D|1-----------1-0-----0------------|
A|------------------------3-3-3-33-|
E|---------------------------------|

Verse 2
Checkered pattern on your skirt
G|--------------------------------|
D|5-5---3-5-5---3-5-5---3/5-8-0-0-|
A|--------------------------------|
E|--------------------------------|

I see you tauntin', see you flauntin', it's so sickenin' I
G|--------------------------------|
D|1-1---0-1-1---0---------4-4---4-|
A|----------------3-3---3---------|
E|--------------------------------|

Can't resist the way you flirt
G|--------------------------------|
D|5-5---3-5-5---3-5-5---3/5-8-0-0-|
A|--------------------------------|
E|--------------------------------|

I should be dead but my heartbeat's quickening
G|--------------------------------|
D|1-1---0-1-1---0---------4-4---4-|
A|----------------3-3---3---------|
E|--------------------------------|

I get the feeling less is more
G|--------------------------------|
D|5-5---3-5-5---3-5-5---3/5-8-0-0-|
A|--------------------------------|
E|--------------------------------|

It's an excuse just to shake your little derriere
G|--------------------------------|
D|1-1---0-1-1---0---------4-4---4-|
A|----------------3-3---3---------|
E|--------------------------------|

That ratio, a perfect score
G|--------------------------------|
D|5-5---3-5-5---3-5-5---3/5-8-0-0-|
A|--------------------------------|
E|--------------------------------|

A girl's status is measured by her denier
G|--------------------------------|
D|1-1---0-1-1---0---------4-4---4-|
A|----------------3-3---3---------|
E|--------------------------------|

Bridge 2
G|--------------------------------|
D|--------------------3/5---8---0-|
A|--------------------------------|
E|3-------------------------------|

G|--------------------------------|
D|1-------------1-0-----0---------|
A|------------------------3-----3-|
E|--------------------------------|

G|--------------------------------|
D|--------------------3/5---8---0-|
A|--------------------------------|
E|3-------------------------------|

G|--------------------------------|
D|1-------------1-0-----0h3-3-3---|
A|--------------------------------|
E|--------------------------------|

Chorus
Lie down, baby, arch your back now maybe you can
G|--------------------------------|
D|1-1-1-1-1-1-1-1-3-3-3-3-3-3-3-3-|
A|--------------------------------|
E|--------------------------------|

Help me get what I want. Curve your little
G|--------------------------------|
D|5-5-5-5-5-5-5-5-8-8-8-8-8-8-8-0-|
A|--------------------------------|
E|--------------------------------|

Spine and tell me that you're mine it's
G|--------------------------------|
D|1-1-1-1-1-1-1-1-3-3-3-3-3-3-3-3-|
A|--------------------------------|
E|--------------------------------|

All about the game and what you flaunt
G|--------------------------------|
D|5-5-5-5-5-5-5---3-3-3-3-3-3-0-0-|
A|--------------------------------|
E|--------------------------------|

Yeah I know there's no pleasing you
G|--------------------------------|
D|1-1-1-1-1-1-1-1-3-3-3-3-3-3-3-3-|
A|--------------------------------|
E|--------------------------------|

When you know you're only teasing me
G|--------------------------------|
D|4-4-4-4-4-4-4-4-5-5---3---1---0-|
A|--------------------------------|
E|--------------------------------|

She's an absolute terror for absolute territory
G|--------------------------------|
D|1-------------1-0-----0---------|
A|------------------------3-----3-|
E|--------------------------------|

G|--------------------------------|
D|--------------------------------|
A|--------------------------------|
E|3-------------------------------|

Verse 3
G|--------------------------------|
D|5-5---3-5-5---3-5-5---3/5-8-0-0-|
A|--------------------------------|
E|--------------------------------|

G|--------------------------------|
D|1-1---0-1-1---0---------4-4---4-|
A|----------------3-3---3---------|
E|--------------------------------|

You're so hotly contested, here's a tip
G|--------------------------------|
D|5-5---3-5-5---3-5-5---3/5-8-0-0-|
A|--------------------------------|
E|--------------------------------|

You should rename your thighs to the Gaza strip
G|--------------------------------|
D|1-1---0-1-1---0-------------4---|
A|----------------3---3---3-------|
E|--------------------------------|

That's it, baby, take control
G|--------------------------------|
D|5-5---3-5-5---3-5-5---3/5-8-0-0-|
A|--------------------------------|
E|--------------------------------|

You're so enticing, mezmerising, don't know how to react
G|--------------------------------|
D|1-1---0-1-1---0---------4-4---4-|
A|----------------3-3---3---------|
E|--------------------------------|

You're gonna steal my very soul
G|--------------------------------|
D|5-5---3-5-5---3-5-5---3/5-8-0-0-|
A|--------------------------------|
E|--------------------------------|

More manslaughter than the third impact yeah!
G|--------------------------------|
D|1---1---0-0-0-0---------4---4---|
A|----------------3---3-----------|
E|--------------------------------|

I see you struttin' in that pleat
G|--------------------------------|
D|5-5---3-5-5---3-5-5---3/5-8-0-0-|
A|--------------------------------|
E|--------------------------------|

Double takin', yeah I'm shakin' and you know it shows
G|--------------------------------|
D|1-1---0-1-1---0---------4-4---4-|
A|----------------3-3---3---------|
E|--------------------------------|

This kind of girl just can't be beat
G|--------------------------------|
D|5-5---3-5-5---3-5-5---3/5-8-0-0-|
A|--------------------------------|
E|--------------------------------|

She whispers in my ear... "take off your clothes."
G|--------------------------------|
D|1-1---0-1-1---0-----------------|
A|----------------3--3---3--2--1--|
E|--------------------------------|

Bridge 3
G|--------------------------------|
D|--------------------3/5---8---0-|
A|0-------------------------------|
E|------3-------------------------|

G|--------------------------------|
D|1-------------1-0-----0---------|
A|------------------------3-----3-|
E|--------------------------------|

G|--------------------------------|
D|--------------------3/5---8---0-|
A|--------------------------------|
E|3-------------------------------|

G|--------------------------------|
D|1-------------1-0-0-0-0-0-0-0-0-|
A|--------------------------------|
E|--------------------------------|

Chorus 2
Lie down, baby, arch your back now maybe you can
G|--------------------------------|
D|1-1-1-1-1-1-1-1-3-3-3-3-3-3-3-3-|
A|--------------------------------|
E|--------------------------------|

Help me get what I want. Curve your little
G|--------------------------------|
D|5-5-5-5-5-5-5-5-8-8-8-8-8-8-8-0-|
A|--------------------------------|
E|--------------------------------|

Spine and tell me that you're mine it's
G|--------------------------------|
D|1-1-1-1-1-1-1-1-3-3-3-3-3-3-3-3-|
A|--------------------------------|
E|--------------------------------|

All about the game and what you flaunt
G|--------------------------------|
D|5-5-5-5-5-5-5---3-3-3-3-3-3-0-0-|
A|--------------------------------|
E|--------------------------------|

Yeah I know there's no pleasing you
G|--------------------------------|
D|1-1-1-1-1-1-1-1-3-3-3-3-3-3-3-3-|
A|--------------------------------|
E|--------------------------------|

When you know you're only teasin' me
G|--------------------------------|
D|4-4-4-4-4-4-4-4-5-5---3---1---0-|
A|--------------------------------|
E|--------------------------------|

She's an absolute terror for absolute territory.
G|--------------------------------|
D|1-------------1-0-----0---------|
A|------------------------3-----3-|
E|--------------------------------|

G|--------------------------------|
D|--------------------------------|
A|--------------------------------|
E|3-------------------------------|

Outro
G|--------------------------------|
D|5--5--5--5--1---3--3--3--3--4-4-|
A|--------------3-----------------|
E|--------------------------------|

G|--------------------------------|
D|5--5--5--5--1---3--3--3--3--4-4-|
A|--------------3-----------------|
E|--------------------------------|

            
            
Suggest correction
Creating personal tab
Creating personal tab
You can edit any tab online and save it as your Personal.

You can edit, replace or remove any tab part or add personal notes – all changes will be seen only by you.

Personal tabs can be accessed anytime from any device, even offline.
Learn more »
Give kudos to tab author, rate the tab!
1 2 3 4 5
comments
print report bad tab
guest
You may want to rate the tab now too:
select rating
Wanna post a correction for this tab? Suggest correction