Oops, an error
Loading. Please wait.

Keyboard Cat - Keyboard Cat Tab

version 1
version 1

Whole song

Interactive

49,000 views 39 this week
6 commentsread comments
1 2 3 4 5
excellent!
x 19
add to favorites
launch autoscroll
font size
0
reset
how to read this tab
guitar tuner
Autoscroll
slow
fast
+/-
esc
set tempo
stop
Help us to improve Ultimate-Guitar.com Take our survey!
×
Author
Play Him Off, Keyboard Cat!

tabbed by carmenbondrajr at gmail dot com

e|-------------|-------------|------------|------------------|
B|-------------|-------------|------------|------------------|
G|----9--12--9-|----5--9--5--|---4--7--4--|------------------|
D|-10----------|--7----------|-5----------|--5-5-5--55-5555--|
A|-------------|-------------|------------|------------------|
E|-------(2x)--|-------(2x)--|-------(2x)-|------------------|

e|-------------|-------------|------------|------------------|
B|-------------|-------------|------------|------------------|
G|----9--12--9-|----7--10-7--|---5--9--5--|------------------|
D|-10----------|--9----------|-7----------|--5~--------------|
A|-------------|-------------|------------|------------------|
E|-------(2x)--|-------(2x)--|-------(2x)-|------------------|
Suggest correction
comments
print report bad tab
6 comments total. Showing first comments.
+3 reply
Lewiji 10 wrote on August 22 2009, 07:58 pm

e|-------------|-------------|------------|------------------|
B|-------------|-------------|------------|------------------|
G|----9--12--9-|----5--9--5--|---4--7--4--|------------------|
D|-10----------|--7----------|-5----------|--5-5-5--55-5555--|
A|-------(2x)--|-------(2x)--|-------(2x)-|------------------|
E|-------------|-------------|------------|------------------|

e|-------------|-------------|------------|------------------|
B|-------------|-------------|------------|------------------|
G|----9--12--9-|----7--10-7--|---5--9--5--|------------------|
D|-10----------|--9----------|-7----------|--5~--------------|
A|-------(2x)--|-------(2x)--|-------(2x)-|------------------|
E|-------------|-------------|------------|------------------|

+1 reply
inka123 10 wrote on October 19 2009, 07:18 am

FTW

+1 reply
JonnyMonster91 20 wrote on May 4 2011, 03:58 am

Amazing.

guest
You may want to rate the tab now too:
select rating
Wanna post a correction for this tab? Suggest correction