Oops, an error
Loading. Please wait.

Knaan - Wavin Flag Chords

version 1
version 1

Whole song

376,806 views 180 this week
4 commentsread comments
1 2 3 4 5
excellent!
x 13
add to favorites
launch autoscroll
font size
0
reset
transpose
0
reset
display chords
guitar tuner
Autoscroll
slow
fast
+/-
esc
set tempo
stop
Help us to improve Ultimate-Guitar.com Take our survey!
×
[Intro]

C                F
When i get older i will be
         Am                     G
stronger they'll call me freedom just
             C
like a wavin flag


[Chorus]

The chorus riff goes something like:

e|--------------------------------------------------------------------------|
B|------------------------10------10----------------------------------------|
G|----------------------10------10----------9--------9--------7------7------|
D|-------10------10----7-------7------7-7-10---7-7-10--------9------9-------|
A|---7-10----7-10----8-------8--------------------------10-10--10-10--------|
E|-8--------8---------------------------------------------------------------|

C                F
when i get older i will be
         Am                      G
stronger they'll call me freedom just
              C
like a waving flag
                 F
and then it goes back
                 Am
and then it goes back
                 G
and then it goes back
(ahhho ahhho ahhho)


[Verse]

C
born to a throne
G
stronger than rome
Am
but violent prone
G
poor people zone
F
but its my home
C
all i have known
F
where i got grown
G
streets we would roam

C
out of the darkness
G
i came the farthest
Am                G
among the hardest survivin
F
learn form these streets
C
it can be bleek
F
accept no defeet
G
surrender retreat
       C           G
(so we struggling) fighting to eat
        Am         G
(and we wondering) when we will be free
      F
so we patiently wait
    C
for that faithful day
    F
its not far away
    G
but for now we say


[Chorus]

e|--------------------------------------------------------------------------|
B|------------------------10------10----------------------------------------|
G|----------------------10------10----------9--------9--------7------7------|
D|-------10------10----7-------7------7-7-10---7-7-10--------9------9-------|
A|---7-10----7-10----8-------8--------------------------10-10--10-10--------|
E|-8--------8---------------------------------------------------------------|

C                F
when i get older i will be
         Am                      G
stronger they'll call me freedom just
              C
like a waving flag
                 F
and then it goes back
                 Am
and then it goes back
                 G
and then it goes back
(ahhho ahhho ahhho)


[Verse]

C
so many wars
G
settling scores
Am
bring us promises
G
leaving us poor
F
i heard them say
C
love is the way
F
love is the answer
G
thats what they say

    C
but look how they treat us
G
make us believers
Am
we fight there battles
G
then they deceive us
F
try to control us
C
they couldn't hold us
F
cause we just move forward
G
like buffalo soldiers
        C          G
(but we strugglin) fighting to eat
        Am          G
(and we wonderingg) when we will be free
      F
so we patiently wait
    C
for that faithfully day
    F
its not far away
    G
but for now we say


[Chorus]

e|--------------------------------------------------------------------------|
B|------------------------10------10----------------------------------------|
G|----------------------10------10----------9--------9--------7------7------|
D|-------10------10----7-------7------7-7-10---7-7-10--------9------9-------|
A|---7-10----7-10----8-------8--------------------------10-10--10-10--------|
E|-8--------8---------------------------------------------------------------|

C                F
when i get older i will be
         Am                      G
stronger they'll call me freedom just
              C
like a waving flag
                 F
and then it goes back
                 Am
and then it goes back
                 G
and then it goes back
(ahhho ahhho ahhho)

C                F
when i get older i will be
         Am                      G
stronger they'll call me freedom just
              C
like a waving flag
                 F
and then it goes back
                 Am
and then it goes back
                 G
and then it goes back
(ahhho ahhho ahhho)


[Bridge]

(Same chords for verses)
and everybody will be singing it
and you and i will be singing it
and we all will be singing it
wo wah wo ah wo ah


[Chorus]

e|--------------------------------------------------------------------------|
B|------------------------10------10----------------------------------------|
G|----------------------10------10----------9--------9--------7------7------|
D|-------10------10----7-------7------7-7-10---7-7-10--------9------9-------|
A|---7-10----7-10----8-------8--------------------------10-10--10-10--------|
E|-8--------8---------------------------------------------------------------|

C                F
when i get older i will be
         Am                      G
stronger they'll call me freedom just
              C
like a waving flag
                 F
and then it goes back
                 Am
and then it goes back
                 G
and then it goes back
(ahhho ahhho ahhho)

C                F
when i get older i will be
         Am                      G
stronger they'll call me freedom just
              C
like a waving flag
                 F
and then it goes back
                 Am
and then it goes back
                 G
and then it goes back
(ahhho ahhho ahhho)

C                F
when i get older i will be
         Am                      G
stronger they'll call me freedom just
              C
like a waving flag
                 F
and then it goes back
                 Am
and then it goes back
                 G
and then it goes back
(ahhho ahhho ahhho)
Suggest correction new What's this?
You can suggest a correction to this tab. Community and Mods will review your correction and vote to approve or reject it.
comments
print report bad tab
4 comments total. Showing first comments.
0 reply
nichhunt 11 wrote on April 30 2009, 09:23 pm

This is the intro bit.
e|--------------------------------------------------------------------|
B|--------------------------------------------------------------------|
G|--------------------------------------------------------------------|
D|------0-0h2p0---33-3-2-0-22-2-0---00-2------------------------------|
A|--33----------3-----------------3-------532-3-----------------------|
E|--------------------------------------------------------------------|

0 reply
Dkorgak 11 wrote on July 28 2009, 04:17 pm

you mind putting in the strum pattern?

0 reply
Bellarockz 41 wrote on June 24 2010, 12:08 pm

UHm, why do u guys use the wrong wavin flag. that one is by drake and justin bieber. the original goes. give me freedom, give me fire, give me reason, take me higher.. and so on

guest
You may want to rate the tab now too:
select rating
Please do not post tabs as comments. Select "correction" instead!