Oops, an error
Loading. Please wait.

Known To Be Lethal - For The Lulz Tab

23 views 1 this week
no commentswrite comment
1 2 3 4 5
please rate
add to favorites
launch autoscroll
font size
0
reset
how to read this tab
guitar tuner
Autoscroll
slow
fast
+/-
esc
set tempo
stop
Help us to improve Ultimate-Guitar.com Take our survey!
×
Author
Difficulty
novice
This is my first tab, got that part using my ears only. Hope you enjoy!
Tuning : E Standard.

Intro (x2)
E--5s6x6-6-9-6---6-6-4-----------------------|
B--6s7x7-6-6-7---7-7-6-----------------------|
G--5s6x6-6-6-8---8-8-6-----------------------|
D--------------------------------------------|
A--------------------------------------------|
E--------------------------------------------|

And then it goes on with :
E--5s6-6-6-6--6-5s6-6-6-5s-6-6-6-------------|
B--6s7-7-7-7--7-6s7-7-7-6s-7-7-7-------------|
G--5s6-6-6-6--6-5s6-6-6-5s-6-6-6-------------|
D--------------------------------------------|
A--------------------------------------------|
E--------------------------------------------|


Hope it's accurate, not that hard to pull off.
Enjoy!
Suggest correction
Give kudos to tab author, rate the tab!
1 2 3 4 5
comments
print report bad tab
guest
You may want to rate the tab now too:
select rating
Please do not post tabs as comments. Select "correction" instead!