Oops, an error
Loading. Please wait.

Koshi Inaba - Akai Ito Tab

4,852 views 12 this week
3 commentsread comments
1 2 3 4 5
excellent!
x 4
add to favorites
launch autoscroll
font size
0
reset
how to read this tab
guitar tuner
Tab Pro tools
  • play this tab
  • loop segment
  • change instrument
  • show fretboard
  • metronome
Autoscroll
slow
fast
+/-
esc
set tempo
stop
Contributor
Difficulty
intermediate
Song & Artist: Akai Ito by Koshi Inaba
Anime OST: Kekaishi 1st Ed. 
Tabbed by: Arvin Guinto
Akai Ito Acoustic Guitar Tab (Ed/Short Ver.)

Am  = (x02210)
E   = (022100)
C   = (x32010) 
F   = (133211)
G   = (320001)
Bb  = (x13331)
Em  = (022000)
Bm  = (x24432)

Power Chords marked with *

Fsus2* = (x 8 10 10 8 8)
E*     = (x79977)
D*     = (x57755)
C*     = (x46654)
G*     = (355433)



Intro:

          Am                C               F               G
e|-----0-0-0-0-----|----------------|---------------|--------------|
B|-----1-1-1p0-----|----------------|---------------|----1-0-------|
G|-------------2p0-|-------0----0---|-----0-0h2-0---|---------0----|
D|---2-------------|---0h2----2---2-|---3---------3-|-----------0--|
A|-0---------------|-3--------------|---------------|--------------|
E|-----------------|----------------|-1-------------|-3------------|

Verse I:
         
          Am                C              G            Am 
e|--0-0--0-0-0-0---|-----------0----|------0-----|----0-0-0-0-------|
B|--1-1--1-1-1-1---|---------3----1-|--------3---|----1-1-1p0-------|
G|--2-2--2-2-2-2---|-------0--------|----0-------|------------2p0---|
D|--2-2--2-2-2-2---|----------------|------------|------------------|
A|--0-0--0-0-0-0---|-0-2-3----------|------------|-0----------------|
E|-----------------|----------------|--0---------|------------------|
                   Minareta machi~       yuukuri~~fu   kinukeru kaze~

       
         C                 F               G             C         G
e|-----------0-----|----------------|--------------|-------0---|-------|
B|---------3-------|----------------|----1-0-------|-----3---1-|---1-0-|
G|--------------0--|--------0-2-----|---0-----0----|---0-------|-------|
D|----0h2----------|-----3------3---|--------------|-----------|-------|
A|--3--------------|----------------|------------2-|-3---------|-------|
E|-----------------|--1-------------|-3------------|-----------|-3-----|
  ~~~      Futari shite     itsumo no peesu   dearuiteru~~~

Verse II:

          C             G              Am
e|------------0----|------0-----|----0-0-0-0------|
B|----------3---1--|--------3---|----1-1-1p0------|
G|--------0--------|----0-------|------------2p0--|
D|-----------------|------------|-----------------|
A|------3----------|------------|-0---------------|
E|-----------------|--0---------|-----------------|
 Fuzake~atte            waratta  ato ni kizuita~~~~

          C                 F               G            C           C
e|-----------0-----|----------------|--------------|-------0---|-----------|
B|---------3----1--|----------------|----1p0-------|-----3---1-|---3p1-3p1-|
G|-----------------|--------0-2-----|---------0----|---0-------|-----------|
D|----0h2----------|-----3------3---|----------0---|-----------|-----------|
A|--3--------------|----------------|------------2-|-3---------|-3---------|
E|-----------------|-1--------------|-3------------|-----------|-----------|
 ~~~~~~~~     Mita  kotonai     otonabita  sono  manazashi~~


     Am            E   F         C
Nani mo hanasanakutatte iiyo daijoubu
F              Bb            G*
Kimochi wa kitto machigai janai



      C*    E          Am          C*
Tada massugu nanika ni tsuki susunde yuku
          F           G*              Fsus2*-E*-D*-C*
Anata wo ne tsuitsui ne mitsumete shimau


Am      Em      F        C
Soba ni ite mo hanarete mo
    Am          Em          F      C
Dareka to dareka tsunagu... akai ito


Ending:

e|---------------|---------------------|-------------------|-3~ --|
B|-----------3---|---------------------|--------0-1--------|-3~ --|
G|---------2-----|-----------2-0h2-0---|----0h2------------|-0~ --|
D|-------3-------|---------3---------3-|-----------0-------|-0~ --|
A|---0-1---------|-1h3-1-0-------------|-------------3-0-2-|-2~ --|
E|-3-------------|---------------------|--3----------------|-3~ --|

************************************

| /   slide up
| \   slide down
| h   hammer-on
| p   pull-off
| ~   vibrato
| +   harmonic
| x   Mute note
| b   Bend
| pb  Pre-bend
| br  Bend release
| pbr Pre-bend release
| brb Bend release bend

************************************
comments
print report bad tab
3 comments total.
+1 reply
cosme13 wrote on July 14 2011, 05:16 pm

Brilliant 5*

+1 reply
mrizkypk wrote on December 31 2012, 10:05 am

Terima Kasih ya :D

0 reply
arvinguinto wrote on July 13 2013, 01:18 am, edited on October 5 2014, 06:49 pm

thanks!

I want to post or [tab]
guest
You may want to rate the tab now too:
select rating
Please do not post tabs as comments. Select "correction" instead!