Oops, an error
Loading. Please wait.

Kyle Smith - Warmth Tab

22 views 1 this week
no commentswrite comment
1 2 3 4 5
3 more votes to show rating
add to favorites
launch autoscroll
font size
0
reset
how to read this tab
guitar tuner
Autoscroll
slow
fast
+/-
esc
set tempo
stop
Help us to improve Ultimate-Guitar.com Take our survey!
×
Author
Difficulty
Tuning
intermediate
B F# B E G# C#
-Warmth-

You'll need a heavy delay setting with 50% Mix, 45% Feedback, and 385MS. Use a soft,
        cave-esque reverb to add body. Thanks for listening and enjoy my tab!


[Verse 1]

C#|------------------------------------13---------------------------------------------|
G#|------15-------15----13-------15-17----15-17-13---------------------------6-5-6-8--|
E |---14-------14-------------14---------------------10---12---9--10-----5-7----------|
B |12-------12-------12----12----------------------8----8----7--7----5-7--------------|
F#|-----------------------------------------------------------------------------------|
B |-----------------------------------------------------------------------------------|

C#|------------------------------------13---------------------------------------------|
G#|------15-------15----13-------15-17----15-17-13---------------------------6-5-6-8--|
E |---14-------14-------------14---------------------10---12---9--10-----5-7----------|
B |12-------12-------12----12----------------------8----8----7--7----5-7--------------|
F#|-----------------------------------------------------------------------------------|
B |-----------------------------------------------------------------------------------|
  

[Chorus]

C#|-----8-10------8-10-------12-13-------12-15-13-17-13-17--------------------------------------|
G#|--10--------10---------13----------15-------------------13-17-13-17-15-15-13-----------------|
E |7---------9---------10----------12-------------------------------------------14-12-----------|
B |-----------------------------------------------------------------------------------15-14-10--|
F#|---------------------------------------------------------------------------------------------|
B |---------------------------------------------------------------------------------------------|

C#|-----8-10------8-10-------12-13-------12-15-13-17-13-17--------------------------------------|
G#|--10--------10---------13----------15-------------------13-17-13-17-15-15-13-----------------|
E |7---------9---------10----------12-------------------------------------------14-12-----------|
B |-----------------------------------------------------------------------------------15-14-10--|
F#|---------------------------------------------------------------------------------------------|
B |---------------------------------------------------------------------------------------------|


[Verse 2]

C#|------------------------------------13---------------------------------------------|
G#|------15-------15----13-------15-17----15-17-13---------------------------6-5-6-8--|
E |---14-------14-------------14---------------------10---12---9---10-----5-7---------|
B |12-------12-------12----12----------------------8----8----7---7----5-7-------------|
F#|-----------------------------------------------------------------------------------|
B |-----------------------------------------------------------------------------------|

C#|------------------------------------17-13-------------------------------------------|
G#|------15-------15----13-------13-15-------15-13----------------------------6-5-6-8--|
E |---14-------14-------------14---------------------10---12---9---10-----5-7----------|
B |12-------12-------12----12----------------------8----8----7---7----5-7--------------|
F#|------------------------------------------------------------------------------------|
B |------------------------------------------------------------------------------------|


[Chorus]

C#|-----8-10------8-10-------12-13-------12-15-13-17-13-17--------------------------------------|
G#|--10--------10---------13----------15-------------------13-17-13-17-15-15-13-----------------|
E |7---------9---------10----------12-------------------------------------------14-12-----------|
B |-----------------------------------------------------------------------------------15-14-10--|
F#|---------------------------------------------------------------------------------------------|
B |---------------------------------------------------------------------------------------------|

C#|------8-10------8-10-------12-13-------12-15-13-17-13-17--------------------------------------|
G#|---10--------10---------13----------15-------------------13-17-13-17-15-15-13-----------------|
E |-----------9---------10----------12-------------------------------------------14-12-----------|
B |12----------------------------------------------------------------------------------15-14-10--|
F#|----------------------------------------------------------------------------------------------|
B |----------------------------------------------------------------------------------------------|


[Bridge]

C#|------------------------------------------------------------------------|
G#|--------------------10-6-8----------------------------------------------|
E |-----7---7----7-5-7--------7---5-3-2---3---5---7-----7-9-10----9-10-12--|
B |12-0---0---0-----------------0-------3---5---7---8-8--------10----------|
F#|------------------------------------------------------------------------|
B |------------------------------------------------------------------------|

C#|------------------------------------------------------------------------|
G#|--------------------10-6-8----------------------------------------------|
E |-----7---7----7-5-7--------7---5-3-2---3---5---7-----7-9-10----9-10-12--|
B |12-0---0---0-----------------0-------3---5---7---8-8--------10----------|
F#|------------------------------------------------------------------------|
B |------------------------------------------------------------------------|
  

[Bridge End]

C#|-------------------13-15-17-13-15----13---------------------------------------------------------------|
G#|------------13-15-----------------17----15-17-13------------------------------------------------------|
E |---10-12-14--------------------------------------14-10-12----10---------------------------------------|
B |12--------------------------------------------------------14----12-14-10------------------------------|
F#|-------------------------------------------------------------------------12-8-10-7-8-5-7-3-5----5/19--|
B |------------------------------------------------------------------------------------------------------|


[Verse 1]

C#|------------------------------------13----------------------------------------------|
G#|------15-------15----13-------15-17----15-17-13----------------------------6-5-6-8--|
E |---14-------14-------------14---------------------10---12---9---10-----5-7----------|
B |12-------12-------12----12----------------------8----8----7---7----5-7--------------|
F#|------------------------------------------------------------------------------------|
B |------------------------------------------------------------------------------------|

C#|------------------------------------13----------------------------------------------|
G#|------15-------15----13-------15-17----15-17-13---------------------------6-5-6-8---|
E |---14-------14-------------14---------------------10---12---9---10-----5-7----------|
B |12-------12-------12----12----------------------8----8----7---7----5-7--------------|
F#|------------------------------------------------------------------------------------|
B |------------------------------------------------------------------------------------|


[End]

C#|8-5---------------------------------------------|
G#|----8-6-----------------------------------------|
E |--------7-5-------------------------------------|
B |------------7-----------------------------------|
F#|--------------8-5-------------------------------|
B |-----------------------------0------------------|


************************************

| /  Slide up

************************************
Suggest correction
Give kudos to tab author, rate the tab!
1 2 3 4 5
comments
print report bad tab
guest
You may want to rate the tab now too:
select rating
Wanna post a correction for this tab? Suggest correction