Oops, an error
Loading. Please wait.

Lauren Aquilina - Lilo Tab

version 2
version 2

Whole song

2,361 views 6 this week
no commentswrite comment
1 2 3 4 5
please rate
add to favorites
launch autoscroll
font size
0
reset
how to read this tab
guitar tuner
Autoscroll
slow
fast
+/-
esc
set tempo
stop
Help us to improve Ultimate-Guitar.com Take our survey!
×
Contributor
Difficulty
novice
LAUREN AQUILINA - LILO
https://www.youtube.com/watch?v=bd2vHceGRA8

I'd say it's 90% correct aha, I did ask Lauren but she can't read tab..
For the verse, on the first note (7, 9, 3) pluck the string harder/louder so you can 
hear the note :) listen to the song to know how fast it is. Please rate, cheers! -@JodieLibbyy


                              *VERSE 1*
Do I annoy you..
Forgive me..
e|---------------------------------------------------------------------------|
B|---------------------------------------------------------------------------|
G|---------------------------------------------------------------------------|
D|------------0--------------------0-------------------0---------------------|  x12
A|-------------------x4-------------------x4----------------x8---------------|
E|------7--------------------9---------------------3-------------------------|

                              *CHORUS*
So push me on a lilo..
e|---------------------------------------------------------------------------|
B|---------------------------------------------------------------------------|
G|------------------2------------2------------------------4----------4-------|
D|------------0-----------0------------0----------0------------0---------0---|  x4
A|---------------------------------------------------------------------------|
E|--------2-----2------2-----2------2-----2----3------3-----3-----3----3---3-|

e|---------------------------------------------------------------------------|
B|---------------------------------------------------------------------------|
G|---------------6-----------6----------6------------------------------------|
D|---------0-----------0----------0------------------------------------------|
A|---------------------------------------------------------------------------|
E|------5-----5-----5-----5----5-----5---------------------------------------|

e|---------------------------------------------------------------------------|
B|---------------------------------------------------------------------------|
G|----------------7-------------------------9--------------------------------|
D|---------0----------0-----0-------0-----------0-----0----------------------|
A|---------------------------------------------------------------------------|
E|-----7-------7---------7-------9-------9---------9-------------------------|

e|---------------------------------------------------------------------------|
B|---------------------------------------------------------------------------|
G|---------------4-----------------------4-----------------------------------|
D|---------0---------0-----0-------0--------0-----0--------------------------|
A|---------------------------------------------------------------------------|
E|-----3------3---------3------3------3-------3------------------------------|

                              *VERSE 2*
the wrong girl..
e|---------------------------------------------------------------------------|
B|---------------------------------------------------------------------------|
G|---------------------------------------------------------------------------|
D|------------0--------------------0-------------------0---------------------|  x4
A|-------------------x4-------------------x4----------------x8---------------|
E|------7--------------------9---------------------3-------------------------|

                              *CHORUS*
e|---------------------------------------------------------------------------|
B|---------------------------------------------------------------------------|
G|------------------2------------2------------------------4----------4-------|
D|------------0-----------0------------0----------0------------0---------0---|  x4
A|---------------------------------------------------------------------------|
E|--------2-----2------2-----2------2-----2----3------3-----3-----3----3---3-|

e|---------------------------------------------------------------------------|
B|---------------------------------------------------------------------------|
G|---------------6-----------6----------6------------------------------------|
D|---------0-----------0----------0------------------------------------------|
A|---------------------------------------------------------------------------|
E|------5-----5-----5-----5----5-----5---------------------------------------|

ooooooooh oh oh oh ohhh....
e|---------------------------------------------------------------------------|
B|---------------------------------------------------------------------------|
G|----------------7-------------------------9--------------------------------|
D|---------0----------0-----0-------0-----------0-----0----------------------|
A|---------------------------------------------------------------------------|
E|-----7-------7---------7-------9-------9---------9-------------------------|
                                                                                 x4
e|---------------------------------------------------------------------------|
B|---------------------------------------------------------------------------|
G|---------------4-----------------------4-----------------------------------|
D|---------0---------0-----0-------0--------0-----0--------------------------|
A|---------------------------------------------------------------------------|
E|-----3------3---------3------3------3-------3------------------------------|

                              *CHORUS*
e|---------------------------------------------------------------------------|
B|---------------------------------------------------------------------------|
G|------------------2------------2------------------------4----------4-------|
D|------------0-----------0------------0----------0------------0---------0---|  x4
A|---------------------------------------------------------------------------|
E|--------2-----2------2-----2------2-----2----3------3-----3-----3----3---3-|

e|---------------------------------------------------------------------------|
B|---------------------------------------------------------------------------|
G|---------------6-----------6----------6------------------7-----------------|
D|---------0-----------0----------0---------------End on:--0-----------------|
A|---------------------------------------------------------------------------|
E|------5-----5-----5-----5----5-----5---------------------7-----------------|
comments
We did not receive enough feedback on this tab! Please rate:
print report bad tab
1 2 3 4 5
I want to post or [tab]
guest
You may want to rate the tab now too:
select rating
Please do not post tabs as comments. Select "correction" instead!