Oops, an error
Loading. Please wait.

Laurena Segura - Fireflies Of Montreal tab

version 1
version 1

Whole song

2,613 views 1 this week
3 commentsread comments
1 2 3 4 5
x 5
add to favorites
×
Save as Personal and add changes to this tab that will be seen only by you. Learn more ›
×
You can save this tab as Personal to edit and correct it or add notes. All changes will be seen only by you. Learn more »
launch autoscroll
font size
0
reset
how to read this tab
guitar tuner
edit
Autoscroll
slow
fast
+/-
esc
set tempo
stop
Fireflies of Montreal- Laurena Segura
Tuning- Standard, Capo 2 for the Youtube video, Capo 3 for the EP recording

INTRO
E |-------------------------------------------------|
B |-------------------------------------------------|
G |--------0--------0---------0----------0----------|
D |-----2--------2--------2---------2---------------|
A |--3--------3-------3---------3-------------------|
E |-------------------------------------------------|


VERSE

E |-------------------------------------------------|
B |-------------------------------------------------|
G |--------0--------0---------0----------0----------|
D |-----2--------2--------2---------2---------------|
A |--3--------3-------3---------3-------------------|
E |-------------------------------------------------|

Ripple in the

E |---------------------------------------------------|
B |---------------------------------------------------|
G |---------1---------1--------1-----------1----------|
D |------2--------2---------2----------2--------------|
A |---2-------2---------2----------2------------------|
E |---------------------------------------------------|

midnight  clouds

E |-----------------------------------------------------|
B |---1--------1--------1----------1--------------------|
G |------2--------2---------2----------2----------------|
D |---------3---------3---------3----------3------------|
A |-----------------------------------------------------|
E |-----------------------------------------------------|

and stars at the

E |------------------------------------------------|
B |------------------------------------------------|
G |--------0--------0---------0----------0---------|
D |-----2--------2--------2---------2--------------|
A |--3--------3-------3---------3------------------|
E |------------------------------------------------|

horizon

E |-------------------------------------------------|
B |-------------------------------------------------|
G |--------0--------0---------0----------0----------|
D |-----2--------2--------2---------2---------------|
A |--3--------3-------3---------3-------------------|
E |-------------------------------------------------|

Flicker from an

E |---------------------------------------------------|
B |---------------------------------------------------|
G |---------1---------1--------1-----------1----------|
D |------2--------2---------2----------2--------------|
A |---2-------2---------2----------2------------------|
E |---------------------------------------------------|

old street light

E |-----------------------------------------------------|
B |---1--------1--------1----------1--------------------|
G |------2--------2---------2----------2----------------|
D |---------3---------3---------3----------3------------|
A |-----------------------------------------------------|
E |-----------------------------------------------------|

attracts the moths who claim the

E |------------------------------------------------|
B |------------------------------------------------|
G |--------0--------0---------0----------0---------|
D |-----2--------2--------2---------2--------------|
A |--3--------3-------3---------3------------------|
E |------------------------------------------------|

night

(Repeat above tabs)
Satellites that pass overhead
In the rib caged sky
If they stop, we’re good as dead
So then what good am I

CHORUS

E |---------------------------------------------------|
B |---------------------------------------------------|
G |---------1---------1--------1-----------1----------|
D |------2--------2---------2----------2--------------|
A |---2-------2---------2----------2------------------|
E |---------------------------------------------------|

‘Cause I’ve heard from

E |-----------------------------------------------------|
B |---1--------1--------1----------1--------------------|
G |------2--------2---------2----------2----------------|
D |---------3---------3---------3----------3------------|
A |-----------------------------------------------------|
E |-----------------------------------------------------|

encounters with the past

E |------------------------------------------------------|
B |------3---------3--------3----------3-----------------|
G |---2---------2--------2---------2---------------------|
D |-0-------0---------0--------0-------------------------|
A |------------------------------------------------------|
E | -----------------------------------------------------|

The creatures gentle

E |------------------------------------------------------|
B |------------------------------------------------------|
G |---------0--------0-------0-------0-------------------|
D |------0--------0-------0-------0----------------------|
A |---2-------2--------2-------2-------------------------|
E |------------------------------------------------------|

glowing never lasts

E |-----------------------------------------------------|
B |---1--------1--------1----------1--------------------|
G |------2--------2---------2----------2----------------|
D |---------3---------3---------3----------3------------|
A |-----------------------------------------------------|
E |-----------------------------------------------------|

So won’t someone

E |------------------------------------------------|
B |------------------------------------------------|
G |--------0--------0---------0----------0---------|
D |-----2--------2--------2---------2--------------|
A |--3--------3-------3---------3------------------|
E |----------------------------------------------- |

tell me after all

E |--------------------------------------------------- |
B |--------------------------------------------------- |
G |---------0--------0-------0-------0---------------- |
D |------0--------0-------0-------0------------------- |
A |---2-------2--------2-------2---------------------- |
E |--------------------------------------------------- |

What happened to the fireflies of Montreal?


Darkness in the alley way
At least for some
In the sixties flew away
Left a few, now there are none
But I’ve heard from encounter with the past
The gentle creature’s glowing never lasts
So won’t someone tell me after all
What happened to the fireflies of Montreal?

The rest of the song is just a repeat of what I tabbed with the above lyrics. After you
listen to the song you should be able to figure out the picking pattern, it’s pretty
basic (sort of like a slow than fast kind of thing). Anyway, hope this helps, it’s 
incredibly lovely to play! --Rachel

            
            
Suggest correction
Creating personal tab
Creating personal tab
You can edit any tab online and save it as your Personal.

You can edit, replace or remove any tab part or add personal notes – all changes will be seen only by you.

Personal tabs can be accessed anytime from any device, even offline.
Learn more »
comments
print report bad tab
3 comments total.
+2 reply
igsey 88 Dec 24, 2011 07:24 AM

I flippin' LOVE YOU.

+1 reply
thiren 44 Jul 19, 2012 04:02 AM

E |-----------------------------------------------------|
B |---1--------1--------1----------1--------------------|
G |------2--------2---------2----------2----------------|
D |---------3---------3---------3----------3------------|
A |-----------------------------------------------------|
E |-----------------------------------------------------|

E |-----------------------------------------------------|
B |----------1--------1---------1---------1-------------|
G |------2---------2--------2----------2----------------|
D |---3---------3--------3----------3-------------------|
A |-----------------------------------------------------|
E |-----------------------------------------------------|

0 reply
thiren 44 Jul 19, 2012 04:03 AM

E |-----------------------------------------------------|
B |---1--------1--------1----------1--------------------|
G |------2--------2---------2----------2----------------|
D |---------3---------3---------3----------3------------|
A |-----------------------------------------------------|
E |-----------------------------------------------------|

E |-----------------------------------------------------|
B |----------1--------1---------1---------1-------------|
G |------2---------2--------2----------2----------------|
D |---3---------3--------3----------3-------------------|
A |-----------------------------------------------------|
E |-----------------------------------------------------|

guest
You may want to rate the tab now too:
select rating
Wanna post a correction for this tab? Suggest correction