Oops, an error
Loading. Please wait.

Lilium - Elfen Lied Tab

version 1
version 1

Whole song

Interactive

6,245 views 3 this week
1 commentread comment
1 2 3 4 5
x 6
add to favorites
launch autoscroll
font size
0
reset
how to read this tab
guitar tuner
Autoscroll
slow
fast
+/-
esc
set tempo
stop
Help us to improve Ultimate-Guitar.com Take our survey!
×
Author
this tab gives no timing. If you can play this, you can easily play the TV 
intro version.

Section 1

E:------------------|-------------------------------------------||
B:------------------|-------------------------------------------||
G:---6-3-1-----2-2--|---6-3-1-----2-4-2-------6-4---------------||
D:-4---------3------|-4---------3---6---4---------6-2-0-2-----2-||
A:---------3--------|---------3-------------5---------------0---||
E:------------------|---------------------5---------------4-----||

                                                          ^hold
E:---------------------------------||
B:---------------------------------||
G:---------------------------------||
D:-4-0---0-2 4-----6-7-9-7-----7-6-||
A:-----4---------6-----------8-----||
E:-------------5-----------9-------||


E:------------------|---------------------------------------------||
B:------------------|---------------------------------------------||
G:---6-3-1-----2-2--|---6-3-1-----2-4-2---------------------------||
D:-4---------3------|-4---------3---6---4---------6-2-0-2---------||
A:---------3--------|---------3-------------5-4-------------4-2-1-||
E:------------------|---------------------5-----7---------4-------||

                                                          ^hold
E:-------------------------|---------------------------------||
B:-------------------------|---------------------------------||
G:-------------------------|-----6-7-----7-6-9---6-----------||
D:-4-0---0-9-7-6-----------|-8-9-----9-7-------7---9-7-6-----||
A:-----4---------9-8-6-8-9-|-----------------------------8---||
E:-------------------------|-------------------------------9-||

         ^^^End of Section 1                                 ^^^ Section 2



E:-----------------------------------------------------------||
B:-----------------------------------------------------------||
G:-----6-7-----7-6-9---6-------------------------------------||
D:-8-9-----9-7-------7---10-7-6---7-----9-6------------------||
A:------------------------------9----------------------------||
E:-----------------------------------------------------------||

PLAY Section 1 once more, end with this riff -V


E:------------------------------||
B:------------------------------||
G:------------------------------||
D:--9-----7---------------------||
A:------------------------------||
E:------------------------------||

Section 3 realization

E:------------------------------|-----------------------------||
B:------------------------------|-----------------------------||
G:-----6------7-6---------------|-----6------8---6-6----------||
D:-7-9------9-----9-7-6---------|-7-9----------9--------------||
A:------------------------------|-----------------------------||
E:------------------------------|-----------------------------||

E:------------------------------------------------------------||
B:------------------------------------------------------------||
G:-----6------7-6---6-------------------6-9-8---6-------------||
D:-7-9------9-----9---7-----7-6-----7-9-------9---------7-6---||
A:------------------------------9---------------------------7-||
E:------------------------------------------------------------||


E:------------------------------------------------------------||
B:-7----------------------------------------------------------||
G:---------9-7-6---8---6-------------------------6-9-8---6----||
D:---------6-6-7-----9-------7-6-7-6---------7-9-------9------||
A:---5-7-9---------------9-7---------7-9----------------------||
E:------------------------------------------------------------||

Suggest correction
comments
print report bad tab
1 comment total.
0 reply
Skater901 81 Sep 18, 2009 10:52 AM

Not correct. Some of it sounds ok but the main theme is wrong. It's an F#, C#, G#, not an A#. It's F# Minor, not Major. 3 stars.

guest
You may want to rate the tab now too:
select rating
Wanna post a correction for this tab? Suggest correction