Oops, an error
Loading. Please wait.

Limelight - Unnamed Song For The Moment Bass Tab

555 views 6 this week
no commentswrite comment
1 2 3 4 5
please rate
add to favorites
launch autoscroll
font size
0
reset
guitar tuner
Tab Pro tools
  • play this tab
  • loop segment
  • change instrument
  • show fretboard
  • metronome
Autoscroll
slow
fast
+/-
esc
set tempo
stop
Contributor
Difficulty
novice
This is a real fun song once you get it down and play with the band. This is the REAL 
because we wrote it.

Key:
   ~ let ring
   \ slide up
   / slide down
   < hold note

Standard Tuning
                  |--GUITAR-INTRO--|

G  |----------------|----------------|----------------|
D O|----------------|----------------|----------------|
A O|----------------|----------------|----------------|
E  |----------------|----------------|----------------|

come in on the end of the second phrase

|----------------|----------------|----------------|
|-------------5--|----------------|-------------5--|
|-----------5--7-|----------------|-----------5--7-|
|--------5\7-7---|0-0-0-0-0-0-0-0-|0-0-0-0-5\7-7---|

|----------------|----------------|----------------|
|----------------|----------------|----------------|
|----------------|5\7-5-----------|5-5-5-5-5-5-5-5-|
|0-0-0-0-0-0-0-0-|------7/5-35653-|----------------|

|----------------|----------------|----------------|
|----------------|----------------|----------------|
|4-4-4-4-4-4-4-4-|----5--7-7--5-7-|----5--7-7--5-7-|
|----------------|0-0---0----0----|0-0---0----0----|

|----------------|----------------|----------------|
|----------------|----------------|----------------|
|----------------|----------------|----5--7-7--5-7-|
|3-3-3-3-3-3-3-3-|5-5-5-5-5-5-5-5-|0-0---0----0----|

|----------------|----------------|----------------|
|----------------|----------------|----------------|
|5\7-5-----------|0-0-0-0-0-0-0-0-|0-0-0-0-0-0-0-0-|
|------7/5-35653-|----------------|----------------|

|----------------|----------------|----------------|
|----------------|----------------|----------------|
|----------------|----------------|0-0-0-0-0-0-0-0-|
|0-0-0-00-0-00-3~|0-0-0-00-0-00-3~|----------------|

|----------------|----------------|----------------|
|----------------|----------------|----------------|
|0-0-0-0-0-0-0-0-|----------------|----------------|
|----------------|0-0-0-00-0-00-3~|0-0-0-00-0-00-3~|

|----------------|----------------|----------------|
|----------------|----------------|----------------|
|----------------|----------------|----------------|
|2-2-2-2-2-2-2-2-|5-5-5-5-5-5-5-5-|2-2-2-2-2-2-2-2-|

|----------------|----------------|----------------|
|----------------|----------------|----------------|O
|----------------|----5--7-7--5-7-|----5--7-7--5-7-|O
|5-5-5-5-5-------|0-0---0----0----|0-0---0----0----|

|----------------|----------------|----------------|
|----------------|----------------|----5--7-7--5-7-|
|----5--7-7--5-7-|----5--7-7--5-7-|0-0---0----0----|
|0-0---0----0----|0-0---0----0----|----------------|

|----------------|----------------|----------------|
|----5--7-7--5-7-|----------------|----------------|
|0-0---0----0----|----5--7-7--5-7-|----5--7-7--5-7-|
|----------------|0-0---0----0----|0-0---0----0----|

|----------------|----------------|----------------|
|----------------|----------------|----------------|
|----------------|----------------|----------------|
|2-2-2-2-2-2-2-2-|5-5-5-5-5-5-5-5-|2-2-2-2-2-2-2-2-|

|----------------|                   |~|
|----------------|song starts over, O|~|O
|----------------|play all in the   O|~|O
|5-5-5-5-5-------|                   |~|


                   Play this 3x
 |----------------|----------------|----------------|----------------|
!|----------------|----------------|----------------|----------------|!
!|----------------|----------------|----------------|----------------|!
 |0-0-0-0-0-0-0-0-|2-2-2-2-2-2-2-2-|3-3-3-3-3-3-3-3-|5-5-5-5-5-5-5-5-|

|----------------|----------------|----------------|----------------|
|----------------|----------------|----------------|----------------|
|----------------|----------------|----------------|----------------|
|0~--------------|0~--------------|0~--------------|0~--------------|

|----------------|----------------|----------------|
|----------------|--------------5-|----------------|
|----------------|------------5--7|----------------|
|0-0-0-0-0-0-0-0-|0-0-0-0-5\7--7--|0-0-0-0-0-0-0-0-|

Hold the last note (3) until lead guitarist signals for the final note.

|----------------|----------------|----------------|
|----------------|----------------|----------------|
|5\7-5-----------|5\7-5-----------|5\7-5-----------|
|------7/5-35653-|------7/5-35653-|------7/5-35653<|

Hold open E until band fades out.

|----------------|----------------|----------------|
|----------------|----------------|----------------|
|----------------|----------------|----------------|
|0~~~~~~~~~~~~~~~|~~~~~~~~~~~~~~~~|~~~~~~~~~~~~~~~~|

That's the song, it's my first ever tab, and I think I did an alright
job. Unless you are closely connected to the band, I doubt you will
recognize the tune. But if you do, and I somehow messed up, contact me
and I will fix it:  dryoohoo11385@yahoo.com  I am almost positive this
is what I play so this is the REAL DEAL. Thank you for checking it out.
comments
We did not receive enough feedback on this tab! Please rate:
print report bad tab
1 2 3 4 5
I want to post or [tab]
guest
You may want to rate the tab now too:
select rating
Please do not post tabs as comments. Select "correction" instead!