Oops, an error
Loading. Please wait.

Limit To Apocalypse - Carol Of The Bells Tab

169 views 1 this week
no commentswrite comment
1 2 3 4 5
please rate
add to favorites
launch autoscroll
font size
0
reset
how to read this tab
guitar tuner
Tab Pro tools
  • play this tab
  • loop segment
  • change instrument
  • show fretboard
  • metronome
×
Best way to learn
"Limit To Apocalypse - Carol Of The Bells"
Autoscroll
slow
fast
+/-
esc
set tempo
stop
Contributor
Difficulty
Tuning
intermediate
D A D G B E
Carol of the Bells (Cover) - Limit to Apocalypse
Album: First Strike 
Tabbed by: Angel Chacon, Sean Atangan

Guitar 1 (Angel)- D, A, D, G, B, e 
Guitar 2 (Sean)-  D, A, D, G, B, e       

/ = Slide Up
\ = Slide Down
h = Hammer On
p = Pull Off
b = Bend String
TP= Tremolo Pick
~ = Let Note Ring
* = Palm Mute
< = Pick slide

Intro Part 1
4/4

Guitar 1 
e|-------------------------------------|
B|-------------------------------------|
G|-------------------------------------|
D|-------------------------------------|
A|-------------------------------------|
D|--0----------------------------------|

Guitar 2 
e|-------------------------------------|x8
B|-------------------------------------|
G|-------------------------------------|
D|-------------------------------------|
A|--7---6---7---6---5------------------|
D|-------------------------------------|
P.M *   *   *   *   * 

Guitar 1 
e|--------------------------------------|x4
B|--------------------------------------|
G|--------------------------------------|
D|--------------------------------------|
A|--------------------------------------|
D|--7-7--6--7--5-5----------------------|
P.M * *  *  *  * *

Intro Part 2
3/4

Guitars 1 & 2 
e|------------------------------------------------------------------------|x2
B|------------------------------------------------------------------------|
G|------------------------------------------------------------------------|
D|---12-----12------10-----10------8-----8------7---------7--8--10--------|
A|---12-----12------10-----10------8-----8------7---------7--8--10--------|
D|---12-----12------10-----10------8-----8------7---------7--8--10--------|

Guitar 1 
e|------------------------------------------------------------------------------|x2
B|------------------------------------------------------------------------------|
G|------------------------------------------------------------------------------|
D|---12----------12----------10----------10----------8------8------7-----7-8-10-|
A|---12----------12----------10----------10----------8------8------7-----7-8-10-|
D|---12-12121212-12-12121212-10-10101010-10-10101010-8-8888-8-8888-7-777-7-8-10-|
P.M      * * * *     * * * *     * * * *     * * * *   ****   ****   ***

Guitar 2 
e|------------------------------------------------------------------------------|x2
B|------------------------------------------------------------------------------|
G|------------------------------------------------------------------------------|
D|---12----------12----------10----------10----------8------8------7-777-7-8-10-|
A|---12-12121212-12-12121212-10-10101010-10-10101010-8-8888-8-8888-7-777-7-8-10-|
D|---12-12121212-12-12121212-10-10101010-10-10101010-8-8888-8-8888-7-777-7-8-10-|
P.M   *  * * * *  *  * * * *  *  * * * *  *  * * * * * **** * **** * *** 

Verse
3/4

Guitars 1 & 2 
e|-------------------------------------------| x8
B|-------------------------------------------|
G|---10--9--10--7----------------------------|
D|-------------------------------------------|
A|-------------------------------------------|
D|-------------------------------------------|

Guitar 1                             Guitar 2 
e|---13--12--13--9--------------| x8 e|------------------------------| x8
B|------------------------------|    B|------------------------------|   
G|------------------------------|    G|---10-10--9-10--7-7-----------|
D|------------------------------|    D|------------------------------| 
A|------------------------------|    A|------------------------------|
D|------------------------------|    D|------------------------------|

Chorus 
1/4
Guitars 1 & 2 
e|------------------------------------------------------| x2
B|------------------------------------------------------|
G|------------------------------------------------------|
D|---12-12--121212--10-10--101010---8-8--8-h1010--7-7---|
A|---12-12--121212--10-10--101010---8-8--8-h1010--7-7---|
D|---12-12--121212--10-10--101010---8-8--8-h1010--7-7---|

Interlude
2/4

Guitar 1 
e|------------------------------------------------| x2 
B|------------------------------------------------|
G|---7--7-----------------------------------------|
D|----------10-p8-p7--7---------------------------|
A|-------------------------8-h10-10--10b---5--5---|
D|------------------------------------------------|

Guitar 2 
e|------------------------------------------------| x2
B|------------------------------------------------|
G|------------------------------------------------|
D|------------------------------------------------|
A|---121212121212--101010101010--888888--777777---|
D|---121212121212--101010101010--888888--777777---|
P.M   * * * * * *   * * * * * *  ******  ******

Guitar 1 
e|----------------------------------|
B|----------------------------------|
G|----------------------------------|
D|----12~---10~---8~---7~-----------|
A|----12~---10~---8~---7~-----------|
D|----12~---10~---8~---7~-----------|
     
Guitar 2
      [T.P..............................] 
e|--------------------------------------| x4
B|--------------------------------------|
G|--------------------------------------|
D|--------------------------------------|
A|---------0-0--4-4--5-h7--5-5-5-5-5-5--|
D|--------------------------------------|
P.M        * *  * *  *  *  * * * * * *

Guitars 1 & 2 
e|----------------------------------------------| x2
B|----------------------------------------------|
G|----------------------------------------------|
D|---121212121212--101010101010--888888--777777-|
A|---121212121212--101010101010--888888--777777-|
D|---121212121212--101010101010--888888--777777-|

Guitars 1&2 
e|-------------------------------------------------------|
B|-------------------------------------------------------|
G|---10-9-10-7----10-9-10-7---10-9-10-7---10-9-10-7------|
D|-------------------------------------------------------|
A|-------------------------------------------------------|
D|-------------------------------------------------------|

Guitar 1 
e|---13-12-13-10---13-12-13-10---13-12-13-10---13-12-13-10----------|
B|------------------------------------------------------------------|
G|------------------------------------------------------------------|
D|-------------------------------------------------------------12---|
A|-------------------------------------------------------------12---|
D|-------------------------------------------------------------12---|

Guitar 2 (1:37)
e|------------------------------------------------------------------|
B|------------------------------------------------------------------|
G|---1010-9-10-77---1010-9-10-77---1010-9-10-77---1010-9-10-77------|
D|-------------------------------------------------------------12---|
A|-------------------------------------------------------------12---|
D|-------------------------------------------------------------12---|

(Piano Break)
Guitar 1
e|---------------------------------------|
B|---------------------------------------|
G|---------------------------------------|
D|-<<<<<<<<<<<<<<<<<<<<<<<<<<<<<<<<<<<<<-|
A|-<<<<<<<<<<<<<<<<<<<<<<<<<<<<<<<<<<<<<-|
D|-<<<<<<<<<<<<<<<<<<<<<<<<<<<<<<<<<<<<<-|

Guitar 2 (Joins Guitar One 2 seconds later)
e|---------------------------------------|
B|---------------------------------------|
G|---------------------------------------|
D|-<<<<<<<<<<<<<<<<<<<<<<<<<<<<<<<<<<<<<-|
A|-<<<<<<<<<<<<<<<<<<<<<<<<<<<<<<<<<<<<<-|
D|-<<<<<<<<<<<<<<<<<<<<<<<<<<<<<<<<<<<<<-|

Chorus 
1/4
Guitars 1 & 2 
e|------------------------------------------------------| x2
B|------------------------------------------------------|
G|------------------------------------------------------|
D|---12-12--121212--10-10--101010---8-8--8-h1010--7-7---|
A|---12-12--121212--10-10--101010---8-8--8-h1010--7-7---|
D|---12-12--121212--10-10--101010---8-8--8-h1010--7-7---|

Interlude
2/4

Guitar 1 
e|------------------------------------------------| x2 
B|------------------------------------------------|
G|---7--7-----------------------------------------|
D|----------10-p8-p7--7---------------------------|
A|-------------------------8-h10-10--10b---5--5---|
D|------------------------------------------------|

Guitar 2 
e|------------------------------------------------| x2
B|------------------------------------------------|
G|------------------------------------------------|
D|------------------------------------------------|
A|---121212121212--101010101010--888888--777777---|
D|---121212121212--101010101010--888888--777777---|
P.M   * * * * * *   * * * * * *  ******  ******

Guitar 1 
e|----------------------------------|
B|----------------------------------|
G|----------------------------------|
D|----12~---10~---8~---7~-----------|
A|----12~---10~---8~---7~-----------|
D|----12~---10~---8~---7~-----------|
     
Guitar 2 
e|----------------------------------| x4
B|----------------------------------|
G|----------------------------------|
D|----------------------------------|
A|T.P--0-0--4-4--5-h7--5-5-5-5-5-5--|
D|----------------------------------|
P.M    * *  * *  *  *  * * * * * *

Guitars 1 & 2 
e|----------------------------------------------| x2
B|----------------------------------------------|
G|----------------------------------------------|
D|---121212121212--101010101010--888888--777777-|
A|---121212121212--101010101010--888888--777777-|
D|---121212121212--101010101010--888888--777777-|

Fill
Guitar 1 (2:18)
e|---13-12-13-9---13-12-13-9---13-12-13-9---13-12-13-9-------|
B|-----------------------------------------------------------|
G|-----------------------------------------------------------|
D|-------------------------------------------------------0---|
A|-------------------------------------------------------0---|
D|-------------------------------------------------------0---|

Guitar 2 (2:18)
e|-----------------------------------------------------------|
B|-----------------------------------------------------------|
G|---10-9-10-7---10-9-10-7---10-9-10-7---10-9-10-7-----------|
D|-------------------------------------------------------0---|
A|-------------------------------------------------------0---|
D|-------------------------------------------------------0---|


Outro
Guitar 1 
e---------------------| x10
B|--------------------|
G|--------------------|
D|---0----------------|
A|---0----------------|
D|---0--000000--------|
P.M     ****** 
Guitar 2 
e|---------------------------| x5
B|---------------------------|
G|---------------------------|
D|---12----------------------|
A|---12----------------------|
D|---12--121212121212--------|
P.M       * * * * * *

Guitar 2 
e|----------------------------------------------------|
B|----------------------------------------------------|
G|----------------------------------------------------|
D|----------------------------------------------------|
A|---0-0-4-4-5-5-4-4-5-5-7-7-5-5-7-7-8-8-7-7-8-8-12---|
D|----------------------------------------------------|

Guitar 1 & 2 
e|-------------------------|
B|-------------------------|
G|-------------------------|
D|----------0--------------|
A|---000000-0--------------|
D|---000000-0--------------|

(Short Piano Fill)

Guitars 1&2
e|---------|| 
B|---------||
G|---------||
D|---12\---||
A|---12\---||
D|---12\---||

Fin.

comments
We did not receive enough feedback on this tab! Please rate:
print report bad tab
1 2 3 4 5
I want to post or [tab]
guest
You may want to rate the tab now too:
select rating
Please do not post tabs as comments. Select "correction" instead!