Oops, an error
Loading. Please wait.

Lions - Metal Heavy Lady Tab

version 1
version 1

Whole song

Interactive

3,696 views 3 this week
3 commentsread comments
1 2 3 4 5
x 4
add to favorites
launch autoscroll
font size
0
reset
how to read this tab
guitar tuner
Autoscroll
slow
fast
+/-
esc
set tempo
stop
Help us to improve Ultimate-Guitar.com Take our survey!
×
Author
Difficulty
novice
Song: Metal Heavy Lady
Band: Lions
Tuning: Standard

Verses:
|---------------------------------|
|---------------------------------|
|---------------------------------|
|---------------------------------|
|--0---0-3-0-0-2-0-0-1-0-0-----2--|
|--------------------------4------|

Chorus:                            
|-------------------------------------------------------------------|
|-------------------------------------------------------------1-3^--|
|o-4---4-4-4-4-4-4-4-4-------------4---4-4-4-4-4-4-4-4-0--2-5-------|
|o-2---2-2-2-2-2-2-2-2-0-2-0-2-2-0-2---2-2-2-2-2-2-2-2--------------|
|-------------------------------------------------------------------|
|-------------------------------------------------------------------|

Bridge:
|-----------------------------------|
|-----------------------------------|
|-----------------------------------|
|-----------------------------------|
|--------7-----5-----5-----5---5-7--|
|--0---0---0-0---0-0---0-0---0------|

Song Order:
Verse
Chorus
Verse
Chorus
Bridge
Solo (Not Transcribed)
Verse
Chorus
Suggest correction
comments
print report bad tab
3 comments total.
+1 reply
brightstarz 10 Dec 29, 2008 02:50 PM

this songs is a lot easier to play than i thought i would be.

0 reply
dabobjones 78 Jul 23, 2009 01:39 AM

sounds better like

|-2--2-5-2-2-4-2-2-3-2-2-1--4--|

but thats just me... good tab btw ^^ just FCed on gh today

0 reply
gerogecopper 46 Sep 28, 2009 10:00 AM

yours seems to be better then the other one

guest
You may want to rate the tab now too:
select rating
Wanna post a correction for this tab? Suggest correction