Oops, an error
Loading. Please wait.

Little Evil Man - The Littlest Rabbit Tab

92 views 1 this week
no commentswrite comment
1 2 3 4 5
please rate
add to favorites
launch autoscroll
font size
0
reset
how to read this tab
guitar tuner
Autoscroll
slow
fast
+/-
esc
set tempo
stop
Help us to improve Ultimate-Guitar.com Take our survey!
×
Contributor
Difficulty
intermediate
#----------------------------------PLEASE NOTE--------------------------------#
#This file is the author's own work and represents their interpretation of the#
#song. You may only use this file for private study, scholarship, or research.#
#-----------------------------------------------------------------------------#
#-- File created with Instab - http://www.pconline.com/~smcarey/instab.html --#
#-----------------------------------------------------------------------------#
Band:           Little Evil Man
Song:           The Littlest Rabbit
Tabbed By:      Weemon
Email:          alkalinetrio6204@aol.com

. = Palm Mute
* = Pinched Harmonic

Part 1
-----------------------------------------------------------------------------|
-----------------------------------------------------------------------------|
-----------------------------------------------------------------------------|
---6-------------6-------9-----6---------------------------------------------|
-----7-----7-------7-------9-----7-----7-----7-----6-------------------------|
-7-----7-5---5-7-----7-7-----7-----7-5---5-4---4-7---7-----------------------|

Part 2
-----------------------------------------------------------------------------|
-----------------------------------------------------------------------------|
-------------------------------9---------9---6---------6---------------------|
---7---------7---9---------9-----9-----9-------6-----6-----7---------7-9-----|
-----7-----7-------9-----9---7-----7-7-----4-----4-4---------7-----7---9-----|
-5-----5-5-----7-----7-7---------------------------------5-----5-5-----7-----|

Part 3
-----------------------------------------------------------------------------|
-----------------------------------------------------------------------------|
-----------------------------------------------------------------------------|
-------6*----------------9-999-9*-99-9-999-9*-99-----------------------------|
-7-777----77-7-777-7*-77-9-999----99-9-999----99-----------------------------|
-7-777----77-5-555----55-7-777----77-7-777----77-----------------------------|
   ...         ...         ...         ...

Part 4
-----------------------------------------------------------------------------|
-----------------------------------------------------------------------------|
---------------------9-999-999-6-666-6*-66-----------------------------------|
-7-777-777-9-999-999-9-999-999-6-666----66-7-777-777-9-----------------------|
-7-777-777-9-999-999-7-777-777-4-444----44-7-777-777-9-----------------------|
-5-555-555-7-777-777-----------------------5-555-555-7-----------------------|
   ...       ...       ...       ...         ...

Part 5
-----------------------------------------------------------------------------|
-----------------------------------------------------------------------------|
---------------------9-999-6-----6-666-4-------------------------------------|
-7-777-777-9-999-999-9-999---9-7-6-666---7-6-7-777-777-9---------------------|
-7-777-777-9-999-999-7-777-------4-444-------7-777-777-9---------------------|
-5-555-555-7-777-777-------------------------5-555-555-7---------------------|
   ...       ...       ...                     ...

Order:

Part 1 - X2
Part 2 - X1
Part 3 - X2
Part 4 - X1
Part 1 - X2
Part 5 - X1
Part 1 - X2
Part 2 - X1
end on D
comments
We did not receive enough feedback on this tab! Please rate:
print report bad tab
1 2 3 4 5
I want to post or [tab]
guest
You may want to rate the tab now too:
select rating
Please do not post tabs as comments. Select "correction" instead!