Oops, an error
Loading. Please wait.

Liv Slakt Och Maskin - Liv Slakt Och Maskin Bass Tab

123 views 1 this week
no commentswrite comment
1 2 3 4 5
3 more votes to show rating
add to favorites
launch autoscroll
font size
0
reset
guitar tuner
Autoscroll
slow
fast
+/-
esc
set tempo
stop
Help us to improve Ultimate-Guitar.com Take our survey!
×
Author
g------------------------------------------------------------------|
d------------------------------------------------------------------|
a----------------------------------8-8-8-8-8-8-8-8-----------------|
E--8-8-8-8-8-8-8-8-8-8-8-8-8-8-8-8-----------------8-8-8-8-8-8-8-8-|

g-----------------------------------------------------------------|
d-----------------------------------------------------------------|
a-10-10-10-10-10-10-10-8-8-8-8-8-8-8-----------------10-10-10-----|
E------------------------------------8-8-8-8-8-8-8-8--------------|

Repeat until you get tired
Suggest correction
Give kudos to tab author, rate the tab!
1 2 3 4 5
comments
print report bad tab
guest
You may want to rate the tab now too:
select rating
Wanna post a correction for this tab? Suggest correction