Oops, an error
Loading. Please wait.

Lives Once Abstract - With Hell Above Heaven Higher And A Broken Ladder Between Tab

109 views 1 this week
no commentswrite comment
1 2 3 4 5
please rate
add to favorites
launch autoscroll
font size
0
reset
how to read this tab
guitar tuner
Tab Pro tools
  • play this tab
  • loop segment
  • change instrument
  • show fretboard
  • metronome
×
Best way to learn
"Lives Once Abstract - With Hell Above Heaven Higher And A Broken Ladder Between"
Autoscroll
slow
fast
+/-
esc
set tempo
stop
Contributor
Difficulty
Tuning
intermediate
C G C F A D
song: With hell above, heaven higher, and a broken ladder between.
Artist: Lives Once Abstract

Tuning: Drop C (C,G,C,F,A,D)

Intro 

Guitar 1 (repeat 2x)

e|------------------------------------------------------------------------------------|
B|------------------------------------------------------------------------------------|
G|------------------------------------------------------------------------------------|
D|------------------------------------------------------------------------------------|
A|---5--------4--------5-----8-----7-----12---------1-----4--------1-----4------------|
E|------0--0-----0--0-----0-----0-----0-------0--0-----0-----0--0-----0-----0--0------| 
   
Guitar 2 (come in after the first repetition of guitar 1)               

e|-------------------------------------------------------------------------------------|
B|-------------------------------------------------------------------------------------|
G|-------------------------------------------------------------------------------------|
D|---3--------2---------3-----7-----5-----10----------------2---------------2----------|
A|--------------------------------------------------------5---------------5------------|
E|------0--0-----0--0-----0-----0-----0-------0--0-----0-----0--0-----0-----0--0-------|
___________________________________________________________________________________________

Guitar 1 (repeat 2x)

|----------------------------------------------------|
|----------------------------------------------------|
|----------------------------------------------------|
|----------------------------------------------------|
|---5--------5--------5-----4--------4--------4------|
|------0--0-----0--0-----0-----0--0-----0--0-----0---|
 PM.   *  *     *  *     *     *  *     *  *     *

Guitar 2 (repeat 2x)

|----------------------------------------------------|
|----------------------------------------------------|
|----------------------------------------------------|
|---3--------3--------3-----2--------2--------2------|
|----------------------------------------------------|
|------0--0-----0--0-----0-----0--0-----0--0-----0---|
PM.    *  *     *  *     *     *  *     *  *     *
_______________________________________________________

Guitar 1

|--------------------------------------------------------------------------------------|
|--------------------------------------------------------------------------------------|
|--------------------------------------------------------------------------------------|
|--------------------------------------------------------------------------------------|
|---------5h8p5-5h8p5--------4h7p4-4h7p4--------5h8p5-5h8p5--------4h7p4-4h7p4---------|
|---0--0---------------0--0---------------0--0---------------0--0----------------------|
(palm mute all open top string notes)
________________________________________________________________________________________

Guitar 1
|----------------------------------------------------|
|----------------------------------------------------|
|----------------------------------------------------|
|----------------------------------------------------|
|-----5h8---4h7---5h8---4h7---5h8---4h7---5h8---4h7--|
|---0-----0-----0-----0-----0-----0-----0-----0------|
PM. *     *     *     *     *     *     *     *
______________________________________________________________________

Chorus:

Part 1 (repeat 2x)
Guitar 1&2
|---------------------------------------------------------------|
|---------------------------------------------------------------|
|---------------------------------------------------------------|
|---7---7---7-7-7-8---8-8---8-8-8-8-7---7---7-7-7-5---5-5-5h7\--|
|---5---5---5-5-5-5---5-5---5-5-5-5-5---5---5-5-5-5---5-5-5~~\--|
|---5---5---5-5-5-5---5-5---5-5-5-5-5---5---5-5-5-5---5-5-5~~\--|

Guitars 1&2
|---------------------------------------------------------------|
|---------------------------------------------------------------|
|---------------------------------------------------------------|
|---3---3---3-3-3-3---3-3---3-3-3-3-3---3---3-3-3-3---3-3-3-3---|
|---1---1---1-1-1-0---0-0---0-0-0-0-1---1---1-1-1-0---0-0-0-0---|
|---1---1---1-1-1-0---0-0---0-0-0-0-1---1---1-1-1-0---0-0-0-0---|
_________________________________________________________________
Part 2 (repeat 2x)
Guitar 1
|----------------------------------------------------------------|
|----------------------------------------------------------------|
|----------------------------------------------------------------|
|----------7---------8---------7---------5-----7-----8-----7\----|
|----------------------------------------------------------------|
|---5-5-5-----5-5-5-----5-5-5-----5-5-5-----5-----5-----5--------|
PM. * * *     * * *     * * *     * * *     *     *     *

Guitar 2
|----------------------------------------------------------------|
|----------------------------------------------------------------|
|---------------------7---------------------------------7--------|
|----------10-------------------10---------8-----10-----------10-|
|----------------------------------------------------------------|
|---5-5-5------5-5-5-----5-5-5------5-5-5-----5------5-----5-----|

I have to get off the computer, I'll do more tomorrow lol.
comments
We did not receive enough feedback on this tab! Please rate:
print report bad tab
1 2 3 4 5
I want to post or [tab]
guest
You may want to rate the tab now too:
select rating
Please do not post tabs as comments. Select "correction" instead!