Oops, an error
Loading. Please wait.

Ll Jam Band - Summer Days Are Gone Chords

10 views 1 this week
no commentswrite comment
1 2 3 4 5
3 more votes to show rating
add to favorites
launch autoscroll
font size
0
reset
transpose
0
reset
display chords
guitar tuner
Autoscroll
slow
fast
+/-
esc
set tempo
stop
Help us to improve Ultimate-Guitar.com Take our survey!
×
Author
Difficulty
novice
    F                  G                    C                  Am
e|---1--------1------|---3---------------|---0---------------|---0---------------|
B|---------1-----1---|------------0------|------------1------|------------0------|
G|------2------------|---------0-----0---|---------0-----0---|---------2-----2---|
D|---3---------------|------0------------|------2------------|------2------------|
A|-------------------|-------------------|---3---------------|---0---------------|
E|-------------------|---3---------------|-------------------|-------------------|

   F                  G                   Am
e|---1--------1------|---3---------------|---0---------------|
B|---------1-----1---|------------0------|------------0------|
G|------2------------|---------0-----0---|---------2-----2---|
D|---3---------------|------0------------|------2------------|
A|-------------------|-------------------|---0---------------|
E|-------------------|---3---------------|-------------------|


[Intro]

F               G
Summer days are gone again
C                Am 
Running from our lives my friend 
F               G               Am
Summer days are gone and so are you

F               G
Autumn days are on their way
C               Am
Missing you like hell today
F               G                Am
What I wouldn't give for it to be June


[Verse 1]

F               G
Hanging out and drinking  beer
C             Am
Making out on South Bay pier
F                     G                Am
Now fall has come and now I'll face my fears

F                 G
Taught me so much about myself
C                      Am
I'll put those talks up on the shelf
F                    G              Am
Have fun in the twin cities without me


[Chorus]

F               G
Summer days are gone again
C                Am 
Running from our lives my friend
F               G               Am
Summer days are gone and so are you

F               G
Autumn days are on their way
C                Am
Missing you like hell today
F               G                Am
What I wouldn't give for it to be June


[Verse 2]

F                    G
We have been through everything
C                    Am
Rapids, wings, and shooting V's
F                    G          Am
How am I supposed to go without you

F                G
Quiet walks back to our house
C                    Am
Starting staff swims by ourselves
F                  G              Am
My old friend how I'll be missing you


[Chorus]

F               G
Summer days are gone again
C                Am 
Running from our lives my friend
F               G               Am
Summer days are gone and so are you

F               G
Autumn days are on their way
C               Am
Missing you like hell today
F               G                Am
What I wouldn't give for it to be June


[Verse 3]

F              G
Secret runs to Mad Dog Jakes
C                    Am
Ice cream cones and chocolate shakes
F                 G                Am
These bracelets I wear because of you

F                   G
A smile filled with constant bliss
C                   Am
I think you're one bad-ass bitch
F            G           Am
St. Olaf has yet another gem


[Outro]

F               G
Summer days are gone again
C                Am 
Running from our lives my friend
F               G               Am
Summer days are gone and so are you

F               G
Autumn days are on their way
C               Am
Missing you like hell today
F               G                
What I wouldn't give
C                   Am
Yes what I wouldn't give
F               G                  Am
What I wouldn't give to go back to June
Suggest correction
Give kudos to tab author, rate the tab!
1 2 3 4 5
comments
print report bad tab
guest
You may want to rate the tab now too:
select rating
Wanna post a correction for this tab? Suggest correction