Oops, an error
Loading. Please wait.

Lo Fin Lee - Kuv Fienx Gormx Lungh Ndiev Tab

785 views 1 this week
no commentswrite comment
1 2 3 4 5
3 more votes to show rating
add to favorites
launch autoscroll
font size
0
reset
how to read this tab
guitar tuner
Autoscroll
slow
fast
+/-
esc
set tempo
stop
Help us to improve Ultimate-Guitar.com Take our survey!
×
Hey, I'm Josh. This is a song by a Mienh singer from Thailand- Lo Fin Lee. this is one 
the songs he did on a worship album. The song is called "Kuv Fienx Gormx Lungh Ndiev"... 
you like it. thanks. any questions? hit me up on my e-mail. josh_saechao@yahoo.com


Intro:

e--------------------------------------------------------------------------|
B---------10-----10--10/12------10-----------------------------------------|
G--/9--11-----11------------11-----9-9h11-7-7h9------7--9--9/11--7---7-----|
D-----------------------------------------------9--9---------------9-------|
A--------------------------------------------------------------------------|
E--------------------------------------------------------------------------|


Solo:

e---------------------------------------------10-10-------------|
B----------------7-8-8/10----10--------10-12--------12-10-------|
G-------7--9-7-9----------11------9/10--------------------11-9--|
D--/7-9---------------------------------------------------------|
A---------------------------------------------------------------|
E---------------------------------------------------------------|

e---------------------------------------------------------------------------|
B---------10-----10--10/12-----10-------------------------------------------|
G---9--11-----11------------11-----9-9h11-7-7h9------7--9--9/11--7---7------|
D-----------------------------------------------9--9---------------9--------|
A---------------------------------------------------------------------------|
E---------------------------------------------------------------------------|


Verse 1:
        D                             F#m
Ziouv Yesu mbuox mbuo oix zuqc mingh zunh kuv fienx,
               Bm                            Em
mbuox zuangx mienh hiuv duqv zien zien nyei maengc,
      D                       F#m           Em                     Bm
maaih mienh camv corc se maiv gaengh hiuv duqv ziangh maengc nyei fienx
            Em                     A7
maaih deix mienh za'gengh maiv lamh kaux dorngx


Verse 2:
           D                             F#m
Mbuo lomh nzoih gapv hnyouv ei Ziouv bun mbuo nyei leiz,
              Bm                           Em
gaanv siepv deix bun kuv fienx gormx lungh ndiev.
      D                         F#m
Ziouv Zangc Diex hnoi hnoi zuov mbuo,
        Em                   Bm
gapv hnyouv, gapv fiem, gapv eix,
              Em        A7              D
cuotv mingh zunh Ziouv Yesu nyei kuv fienx


Chorus:
              G                               D
Maaih mienh camv, camv haic maiv haiz jiex naaiv kuv fienx.
             G                           A7
Maaih mienh camv corc yiem Saadaan buoz ndiev.
            D                  F#m
Wuov deix mienh hnoi hnoi zuov mbuo.
         Bm
Dorh ziangh maengc nyei kuv fienx
              Em         A7                    D
Tengx zuangc mienh bungx nqoi daaih zipv siang maengc


Verse 3:
             D                                F#m
Sienx liuz nyei zuangx mienh, oix zuqc juangc fiem juangc eix.
             Bm                          Em
Lomh nzoih mingh zunh njoux en nyei kuv fienx.
      D                          F#m
Fongc horc hnyouv caux mbuo nyei sin,
        Em                   Bm
zinh-nyaanh weic Ziouv nyei gong,
            Em                         A7
gunv hnamv longx oix zuqc muangx Ziouv nyei waac.


Verse 4:
            D                                F#m
Gaanv nyie daaih, jiex sin gapv qaqv dongh hnyouv fuh sux.
        Bm                              Em
Ziouv Yesu paaiv mbuo mingh norm norm dorngx.
     D                          F#m
Zunh Kuv Fienx mbuo mienh sienx Ziouv.
       Em                   Bm
Bun mienh lomh nzoih njien youh,
              Em           A7                D
juangc gorx youz juangc jienv yiem Ziouv Gi^duc


Chorus:
              G                               D
Maaih mienh camv, camv haic maiv haiz jiex naaiv kuv fienx.
             G                           A7
Maaih mienh camv corc yiem Saadaan buoz ndiev.
            D                  F#m
Wuov deix mienh hnoi hnoi zuov mbuo.
         Bm
Dorh ziangh maengc nyei kuv fienx
              Em         A7                    D
Tengx zuangc mienh bungx nqoi daaih zipv siang maengc
Suggest correction
Give kudos to tab author, rate the tab!
1 2 3 4 5
comments
print report bad tab
guest
You may want to rate the tab now too:
select rating
Wanna post a correction for this tab? Suggest correction