Oops, an error
Loading. Please wait.

Loaded Dice - Maybe I Cant See Bass Tab

71 views 1 this week
no commentswrite comment
1 2 3 4 5
please rate
add to favorites
launch autoscroll
font size
0
reset
guitar tuner
Tab Pro tools
  • play this tab
  • loop segment
  • change instrument
  • show fretboard
  • metronome
Autoscroll
slow
fast
+/-
esc
set tempo
stop
Difficulty
novice
Band:Loaded Dice
Song:Maybe i can't see

Verse/Main riff
G|------------------------------------|
D|------------------------------------|
A|--------12-12-12-13-13-13-----------|
E|--11-11-------------------13-13-13--|

Chorus
G|---------------------------------------------------|
D|---------------------------------------------------|
A|--------------12-12-12-12-13-13-13-13--------------|
E|--11-11-11-11-------------------------13-13-13-13--|

easy song but sounds great.
comments
We did not receive enough feedback on this tab! Please rate:
print report bad tab
1 2 3 4 5
I want to post or [tab]
guest
You may want to rate the tab now too:
select rating
Please do not post tabs as comments. Select "correction" instead!