Oops, an error
Loading. Please wait.

Lockdown - Bite The Knife Tab

114 views 1 this week
no commentswrite comment
1 2 3 4 5
3 more votes to show rating
add to favorites
launch autoscroll
font size
0
reset
how to read this tab
guitar tuner
Autoscroll
slow
fast
+/-
esc
set tempo
stop
Help us to improve Ultimate-Guitar.com Take our survey!
×
Author
Difficulty
novice
Standard D tuning

WELL ... THIS IS A SONG FROM A VERY GOOD BAND PLAYING SOUTH CALI HARDCORE !!
   ONE OF THE FUNNEST BANDS TO MOSH TO OVER HERE!!! HAHA ENJOY:

----------------------------------------------------------------------------
   Lyrics:

   My hate for you will never die,
Take off the eye liner and cut the hair, OUT OF YOUR EYES!!
   There's so much more than Hollister and shitty quotes about the autumn sky.
The get-low kids who think they run this shit wear their yankee's hat see how low they can get,
   Well fuck your hat turned to the side and how hard you can mosh to Every Time I Die!!!

      BITE THE KNIFE YOU SON OF A BITCH ,
      I WANT YOU TO SUCK MY DICK, (GROUP) SUCK IT!!!!
    TO DESECRATE YOU IN THE WORST FUCKING WAY
      YOU'RE JUST A JOKE AND A FAD THAT WON'T FUCKING STAY

     YOU FUCKING BASTARD WE'RE SICK OF IT!!!

   Tough guy, Fashion, Get-low all of it's lame
 It's not original when you all look the same
   All the bands on your I-pod from MTV2,
 No Idea what it means to be true,
   So crack a kid when he's getting low,
 And break a dude who looks too much like a hoe,
   Take back the scene from these inscensire fucks.
 Bite down hard on the blade you fucking, PUNKS!!!!!!!

     BITE THE KNIFE!!!!

  YOU HAVE TO LISTEN TO THE SONG TO GET THE TIMING ^_^

----------------------------------------------------------------------------   




LEGEND
-------
():LET IT RING
~:BEND
*:HARMONICS
-:PALM MUTES 
\:SLIDE UP
/:SLIDE DOWN



D|----------------------------------------|
A|----------------------------------------|
F|----------------------------------------|
C|----------------------------------------|(1x)
G|-22---2-2-255-5-5-577-7-7-7-55-5--8-7-5-|
D|-00---0-0-033-3-3-355-5-5-5-33-3--6-5-3-|
 




D|------------------------------------------------------------------|
A|------------------------------------------------------------------|
F|------------------------------------------------------------------|
C|------------------------------------------------------------------| (1x)
G|-22---2-2-255-5-5-577-7-7-7-55-5--8-7-5-2---(2)-----(2)----(2)----|
D|-00---0-0-033-3-3-355-5-5-5-33-3--6-5-3-0---(0)-----(0)----(0)----|



D|-----------------------------|
A|-----------------------------|
F|-----------------------------|
C|-----------------------------| (1x's)
G|-8---7-5-2---(2)---(2)---(2)-|
D|-6---5-3-0---(0)---(0)---(0)-|



D|-----------------------------------------------|
A|-----------------------------------------------|
F|-----------------------------------------------|
C|-----------------------------------------------| (1x's)
G|-8---7-5-22---2-2-255-5-5-5-77-7-7-755-5-8-7-5-|
D|-6---5-3-00---0-0-033-3-3-3-55-5-5-533-3-6-5-3-|




D|----------------------------------------|
A|----------------------------------------|
F|----------------------------------------|
C|----------------------------------------|(2x's)
G|-22---2-2-255-5-5-577-7-7-7-55-5--8-7-5-|
D|-00---0-0-033-3-3-355-5-5-5-33-3--6-5-3-|




D|----------------------------------------------|
A|----------------------------------------------|
F|----------------------------------------------|
C|----------------------------------------------|(1x's)
G|-22---2-2-255-5-5-577-7-7-7-55-5--8-7-5-2-(2)-|
D|-00---0-0-033-3-3-355-5-5-5-33-3--6-5-3-0-(0)-|




D|----------------------------------|
A|----------------------------------|
F|----------------------------------|
C|----------------------------------| (2x's)
G|-2-2-2-2-2-2-2-2-2-2--8-7-5-2-(2)-|
D|-0-0-0-0-0-0-0-0-0-0--6-5-3-0-(0)-|
   - - - - - - - - - -


     *SLOWS DOWN HERE BY ABOUT 1\2 A SPEED*

D|---------------------------------------------------------------------|
A|---------------------------------------------------------------------|
F|---------------------------------------------------------------------|
C|---------------------------------------------------------------------|(1x's) 
G|-2-2-2-2-2-2-2-2-2-2-2-2-2-2-8-(8)-8-8-8-8-8-8-7-7-7-7-5-5-5-5-2-(2)-| 
D|-0-0-0-0-0-0-0-0-0-0-0-0-0-0-6-(6)-6-6-6-6-6-6-5-5-5-5-3-3-3-3-0-(0)-|
   - - - - - - - - - - - - - -




D|----------------------------------------------------------------|
A|----------------------------------------------------------------|
F|----------------------------------------------------------------|
C|----------------------------------------------------------------|  (1x's)
G|-2-2-2-2-2-2-2-2-2-2-2-2-2-2-8-(8)-8-8-8-8-8-8-7-7-7-7-5-5-5-5--|
D|-0-0-0-0-0-0-0-0-0-0-0-0-0-0-6-(6)-6-6-6-6-6-6-5-5-5-5-3-3-3-3--|
   - - - - - - - - - - - - - -





D|----------------------------------------------|
A|----------------------------------------------|
F|----------------------------------------------|  (1x's)
C|----------------------------------------------|
G|----------------------------------------------|
D|-0-0--0-(0)-00-0--0(0)-00-0--0(0)-00-0--0(0)--|
   - -        -- -       -- -       -- -


      

       *SPEEDS BACK UP TO NORMAL SPEED*

D|-----------------------------------------|
A|-----------------------------------------|
F|-----------------------------------------|  
C|-----------------------------------------|
G|-8-(8)-8-8-8-8-8-8-7-7-7-7-5-5-5-5-2-(2)-|
D|-6-(6)-6-6-6-6-6-6-5-5-5-5-3-3-3-3-0-(0)-|




D|-----------------------------|
A|-----------------------------|
F|-----------------------------|
C|-----------------------------|
G|-2-2-2-2-2-2-2-2-2-2-2-2-2-2-|
D|-0-0-0-0-0-0-0-0-0-0-0-0-0-0-|
   - - - - - - - - - - - - - -





D|-----------------------------------------|
A|-----------------------------------------|
F|-----------------------------------------|  
C|-----------------------------------------|
G|-8-(8)-8-8-8-8-8-8-7-7-7-7-5-5-5-5-2-(2)-|
D|-6-(6)-6-6-6-6-6-6-5-5-5-5-3-3-3-3-0-(0)-|





D|-----------------------------|
A|-----------------------------|
F|-----------------------------|
C|-----------------------------|
G|-2-2-2-2-2-2-2-2-2-2-2-2-2-2-|
D|-0-0-0-0-0-0-0-0-0-0-0-0-0-0-|
   - - - - - - - - - - - - - - 






D|-----------------------------------------|
A|-----------------------------------------|
F|-----------------------------------------|  
C|-----------------------------------------|
G|-8-(8)-8-8-8-8-8-8-7-7-7-7-5-5-5-5-2-(2)-|
D|-6-(6)-6-6-6-6-6-6-5-5-5-5-3-3-3-3-0-(0)-|




D|-----------------------------|
A|-----------------------------|
F|-----------------------------|
C|-----------------------------|
G|-2-2-2-2-2-2-2-2-2-2-2-2-2-2-|
D|-0-0-0-0-0-0-0-0-0-0-0-0-0-0-|
   - - - - - - - - - - - - - - 





D|-----------------------------------------|
A|-----------------------------------------|
F|-----------------------------------------|  
C|-----------------------------------------|
G|-8-(8)-8-8-8-8-8-8-7-7-7-7-5-5-5-5-2-(2)-|
D|-6-(6)-6-6-6-6-6-6-5-5-5-5-3-3-3-3-0-(0)-|
   




D|-----------------------------|
A|-----------------------------|
F|-----------------------------|
C|-----------------------------|
G|-2-2-2-2-2-2-2-2-2-2-2-2-2-2-|
D|-0-0-0-0-0-0-0-0-0-0-0-0-0-0-|
   - - - - - - - - - - - - - - 



     *SLOW IT DOWN FOR THE ONCOMING BREAKDOWN*
D|-------------------------------------------------------------------|
A|-------------------------------------------------------------------|
F|-------------------------------------------------------------------|  
C|-------------------------------------------------------------------|
G|-8-(8)-8-8-8-8-8-8-7-7-7-7-5-5-5-5-2-(2)-----(2)-----(2)-----(2)---|
D|-6-(6)-6-6-6-6-6-6-5-5-5-5-3-3-3-3-0-(0)-----(0)-----(0)-----(0)---|
   



  BREAKDOWN

D|----------------------------------|
A|----------------------------------|
F|----------------------------------|
C|----------------------------------|
G|-2--2-2-2-2--2-2---2-2-2--5--8-7--|
D|-0--0-0-0-0--0-0---0-0-0--3--6-5--|
      - - -    - -   - - - 





D|----------------------------------|
A|----------------------------------|
F|----------------------------------|
C|----------------------------------|
G|-2--2-2-2-2--2-2---2-2-2--7--5-8--|
D|-0--0-0-0-0--0-0---0-0-0--5--3-6--|
      - - -    - -   - - - 




D|----------------------------------|
A|----------------------------------|
F|----------------------------------|
C|----------------------------------|
G|-2--2-2-2-2--2-2---2-2-2--5--8-7--|
D|-0--0-0-0-0--0-0---0-0-0--3--6-5--|
      - - -    - -   - - - 




D|---------------------------|
A|---------------------------|
F|---------------------------|
C|---------------------------|
G|--2--2-2-2-2-2-2-2-2-2-2-2-|
D|--0--0-0-0-0-0-0-0-0-0-0-0-|
       - - - - - - - - - - -





D|----------------------------------|
A|----------------------------------|
F|----------------------------------|
C|----------------------------------|
G|-2--2-2-2-2--2-2---2-2-2--5--8-7--|
D|-0--0-0-0-0--0-0---0-0-0--3--6-5--|
      - - -    - -   - - - 





D|----------------------------------|
A|----------------------------------|
F|----------------------------------|
C|----------------------------------|
G|-2--2-2-2-2--2-2---2-2-2--7--5-8--|
D|-0--0-0-0-0--0-0---0-0-0--5--3-6--|
      - - -    - -   - - - 





D|----------------------------------|
A|----------------------------------|
F|----------------------------------|
C|----------------------------------|
G|-2--2-2-2-2--2-2---2-2-2--5--8-7--|
D|-0--0-0-0-0--0-0---0-0-0--3--6-5--|
      - - -    - -   - - - 





D|----------------------------------|
A|----------------------------------|
F|----------------------------------|
C|----------------------------------|
G|-2--2-2-2-2--2-2---2-2-2--7--5-8--|
D|-0--0-0-0-0--0-0---0-0-0--5--3-6--|
      - - -    - -   - - - 





D|-------------------------------|
A|-------------------------------|
F|-------------------------------|  (4x's)
C|-------------------------------|
G|-2--2-2-2-2--2-2----2-2----2-2-|
D|-0--0-0-0-0--0-0----0-0----0-0-|
      - - -    - -    - -    - -





        THIS IS PERSONALLY 1 OF MY FAVORITE HARDCORE SONGS EVER
        


   YOU COULD LISTEN TO THEM ON..............MYSPACE
                 
           www.myspace.com/lockdown666.

Suggest correction
Give kudos to tab author, rate the tab!
1 2 3 4 5
comments
print report bad tab
guest
You may want to rate the tab now too:
select rating
Wanna post a correction for this tab? Suggest correction