Oops, an error
Loading. Please wait.

Locked Doors - Gettin Lucky In Kentucky Bass Tab

148 views 1 this week
no commentswrite comment
1 2 3 4 5
please rate
add to favorites
launch autoscroll
font size
0
reset
guitar tuner
Tab Pro tools
  • play this tab
  • loop segment
  • change instrument
  • show fretboard
  • metronome
×
Best way to learn
"Locked Doors - Gettin Lucky In Kentucky"
Autoscroll
slow
fast
+/-
esc
set tempo
stop
standard tuning

Intro
g|-----------------------------------------------|
d|-----------------------------------------------|
a|-----------------------------------------------|
e|-0-0-0-0-0-0-0-0-0-0-0-0-0-0-0-0-0-0-0-0-0-0-0-|
play over and over till next part

Verse
g|------------------2----------------------------|
d|---2------2------2-2-----5---------------------|
a|--2-2----2-2----0-------5-5--------------------|
e|-0------0--------------3-----------------------|   x2

Chorus
g|-----------2--------------7--------------------|
d|---2------2-2-----5------7-7-------------------|
a|--2-2----0-------5-5----5----------------------|
e|-0--------------3------------------------------|   x2

Verse
g|------------------2----------------------------|
d|---2------2------2-2-----5---------------------|
a|--2-2----2-2----0-------5-5--------------------|
e|-0------0--------------3-----------------------|   x2

Chorus
g|-----------2--------------7--------------------|
d|---2------2-2-----5------7-7-------------------|
a|--2-2----0-------5-5----5----------------------|
e|-0--------------3------------------------------|   x2

Solo
g|--------------------------020------------------|
d|----------020----------------------------------|
a|---020---0---------020---0---------------------|
e|-03---303--------03---303----------------------|   x2

Chorus
g|-----------2--------------7--------------------|
d|---2------2-2-----5------7-7-------------------|
a|--2-2----0-------5-5----5----------------------|
e|-0--------------3------------------------------|   x2

Outro
g|-----------------------------------------------|
d|-----------------------------------------------|
a|-----------------------------------------------|
e|-12-12-12-12-12-12-12-12-12-12-12-12-----------|   x2

g|-----------------------------------------------|
d|-----------------------------------------------|
a|-----------------------------------------------|
e|-12~~------------------------------------------|
comments
We did not receive enough feedback on this tab! Please rate:
print report bad tab
1 2 3 4 5
I want to post or [tab]
guest
You may want to rate the tab now too:
select rating
Please do not post tabs as comments. Select "correction" instead!