Oops, an error
Loading. Please wait.

Loethea - Sunflower Exercises Tab

464 views 1 this week
no commentswrite comment
1 2 3 4 5
please rate
add to favorites
launch autoscroll
font size
0
reset
how to read this tab
guitar tuner
Tab Pro tools
  • play this tab
  • loop segment
  • change instrument
  • show fretboard
  • metronome
Autoscroll
slow
fast
+/-
esc
set tempo
stop
Contributor
Like title tells, exercises. Some stuff I've came up by myself, feel free to try 
out. Feed back/comments all welcome. Unsure of difficulty, you decide.


Standard tuning, timing and all free

1.
|-----------------------------------------------------------|
|---------6---------------5---------------4-----------------|
|-------7---7-----------7---7-----------7---7-5-------------|
|-----6-------6-------5-------5-------5---------5-----------|
|-5-8-----------8-4-8-----------7-4-7-------------8-7-5-4-5-|
|-----------------------------------------------------------|

2.
|----------15----------------15----------------------------|
|----------------------------------------------15----------|
|----15-19----19-15----15-19----19-15----14-17----17-14----|
|----------------------------------------------------------|
|-17----------------17----------------16-------------------|
|----------------------------------------------------------|

|----------------------------------------------------------|
|---------15---------------14----------------12------------|
|---14-17----17-14----12-15---15-12----12-15----15-12-13---|
|----------------------------------------------------------|
|-16----------------15---------------14--------------------|
|----------------------------------------------------------|



3.
|-------------------------5---5-------------------------------------|
|-------------------8-5-8---7---7-----------------------------------|
|-----------7-4-7-5-------------------------------------------------|
|---9-7-9-5---------------------------------------------------------|
|-7-----------------------------------------------------------------|
|-------------------------------------------------------------------|

|-------------------------------------------------------------------|
|------------------------10-8-7-8-7---------------------------------|
|-----8-----8------8---8------------8-7-5-3-------------------------|
|---7-----7------7---7----------------------4-5---------------------|
|-5-----5------5--------------------------------4-5-----------------|
|-------------------------------------------------------------------|

|-------------------------------------------------------------------|
|----------------10----------------------------10-11-10-------------|
|----------10-13----13-10----------------10-13----------13-12-------|
|-------12----------------12----------12----------------------11-12-|
|-10-12----------------------12-10-12-------------------------------|
|-------------------------------------------------------------------|


4.
|--------------------------------------------------------------------------|
|--------5-8-6-5-------------5-8-6-5--------------3-6-5-3-----------3-6-5--|
|------7---------7---------7---------7----------5---------5-------5-------5|
|----7-------------7-----7-------------7------5-----------------5----------|
|5-8-----------------5-8------------------3-6---------------3-6------------|
|--------------------------------------------------------------------------|

|---------------3-4-3-------------------------3-4-3----------------|
|-----3---3-4-6-------6-4-3-3-3-----3---3-4-6-------6-4-3-3-3------|
|-------5-----------------------------5----------------------------|
|-5-5---------------------------5-5--------------------------------|
|------------------------------------------------------------------|
|------------------------------------------------------------------|

|------------------------------------------------------------------|
|-----------------2-3-3-----------------3-2--6-6---3---------------|
|-----------2-4-5-----------------2-3-5----------5---4-4-5---------|
|-5-4-3-4-5-------------5-4-3-4-5----------------------------------|
|------------------------------------------------------------------|
|------------------------------------------------------------------|

|-10-9-----5-6-5---------------------------------------------------|
|------6-8-------8-6-5-6-5---------6-8-5---------------------------|
|--------------------------7-----6-------7-6---7-------------------|
|----------------------------5-8-------------7-0-------------------|
|------------------------------------------------------------------|
|------------------------------------------------------------------|

5.                          2x                        2x        
|-12-------------------------|-------------------------|
|----13---8------------------|-------------------------|
|-------7--------7-------2-0-|-----12-----12-9---------|
|-----------10-5---7-2-------|---9------9------12-9-12-|
|----------------------2-----|-7------7----------------|
|----------------------------|-------------------------|

|-------------------------|
|-------------------------|
|-----12-----12-----------|
|---9------9----12-9-12-9-|
|-7------7----------------|
|-------------------------|

|------------------------------------------------|
|---------8-12-8-------------7-11-7------------6-|
|-------9--------9---------8--------8--------7---|
|----10------------10----9------------9----8-----|
|-12------------------11----------------10-------|
|------------------------------------------------|

|-------------------------------------------------------|
|-10-6--------------------------------------------------|
|------7-------10------12-------15-------19-17-------15-|
|--------8---8-------8-------12-------15-------17-------|
|----------6------10------13-------17-------------17----|
|-------------------------------------------------------|

6.
|----------------------------------------------|
|----------12----------------12----------------|
|-------14----14----------14----14----------11-|
|----12----------12----12----------12----12----|
|-14----------------14----------------12-------|
|----------------------------------------------|

|---------------------------------------------|
|-10---------------7--------------------------|
|----11-------------------------9-----------7-|
|-------12-------9---9--------7---7-------7---|
|-------------10-------10---5-------5---9-----|
|----------12-------------3-----------7-------|

|--------------------------------------------------------------|
|------------7-------------------------7-----------------------|
|------------------7------7------------------7-----------------|
|-----7----9------------9-------7----9------------9-7----------|
|---9---10-------9---10-------9---10-------9---10--------------|
|-7------------7------------7------------7---------------------|


comments
We did not receive enough feedback on this tab! Please rate:
print report bad tab
1 2 3 4 5
I want to post or [tab]
guest
You may want to rate the tab now too:
select rating
Please do not post tabs as comments. Select "correction" instead!