Oops, an error
Loading. Please wait.

Logan Kinsella - Who I Wanna Be Chords

13 views 1 this week
no commentswrite comment
1 2 3 4 5
2 more votes to show rating
add to favorites
launch autoscroll
font size
0
reset
transpose
0
reset
simplify chords
display chords
guitar tuner
Autoscroll
slow
fast
+/-
esc
set tempo
stop
Help us to improve Ultimate-Guitar.com Take our survey!
×
Author
Difficulty
Tuning
novice
D# G# C# F# A# D#
About this tab version
This song is by Logan Kinsella. It is all acoustic, but feel free to play it on electric. Was this info helpful? Yes No
Chords
         G#m   E     B     F#    B/C#  B/A#  C     F     G     Am
D#-------4-----0-----x-----2-----x-----x-----0-----1-----3-----0-----
A#-------4-----0-----4-----2-----4-----4-----1-----1-----3-----1-----
F#-------4-----1-----4-----3-----4-----4-----0-----2-----0-----2-----
C#-------6-----2-----4-----4-----4-----4-----2-----3-----0-----2-----
G#-------6-----2-----2-----4-----4-----1-----3-----3-----2-----0-----
D#-------4-----0-----x-----2-----x-----x-----x-----1-----3-----x-----



[Intro]

G#m    E    B    F# (x2)


[Verse 1]

G#m 
    You never listen to me
E
    You never show me your care
B
    Why do I even try
F#
    to breathe your air
G#m
    Say your worst now
E
    Can you tell I'm listening
B
    It seems I have
F#
    no discipline


[Chorus]

B                    E
  Say what you wanna say
                  F#
Do what you wanna do
              E
I'll be who I am
         F#    B
Wait til I get through
B                     E
I don't care what you say
                    G#m
Even though you disagree
           E
I am who I am
                  F#
And I'll be who I wanna be


[Verse 2]

G#m
    Never made a decision
E
    Never given a chance
B
    I'm seeing the world
F#
    with my first real glance
G#m
    I try to tune you out
E
    But you keep coming back
B
    With you here
F#
    I'm under attack


[Chorus]

B                    E
  Say what you wanna say
                  F#
Do what you wanna do
              E
I'll be who I am
         F#    B
Wait til I get through
B                     E
I don't care what you say
                    G#m
Even though you disagree
           E
I am who I am
         F#
And I'll be who I wanna be


[Solo]
     
    1  e  +  a  2  e  +  a  3  e  +  a  4  e  +  a  | 1  e  +  a  2  e  +  a  3  e  +  a  4  e  +  a
D#|----------------------------11-------------11----|-12-------11------/14-------12-------11----12----|
A#|-------------12-------12-------12-------12----12-|-------------------------------------------------|
F#|-13-------------13-------------------13----------|-------------------------------------------------|
C#|-------------------------------------------------|-------------------------------------------------|
G#|-------------------------------------------------|-------------------------------------------------|
D#|-------------------------------------------------|-------------------------------------------------|


    1  e  +  a  2  e  +  a  3  e  +  a  4  e  +  a  | 1  e  +  a  2  e  +  a  3   ti  ta  4  ti  ta
D#|-14-------12-------11-------9--------7-----------|-------------------------11--9---7---------------|
A#|-------------------------------------------11----|-9-----------7-----------------------------------|
F#|-------------------------------------------------|-------------------------------------11--9---8---|
C#|-------------------------------------------------|-------------------------------------------------|
G#|-------------------------------------------------|-------------------------------------------------|
D#|-------------------------------------------------|-------------------------------------------------|


    1  e  +  a  2  e  +  a  3  e  +  a  4  e  +  a  | 1  e  +  a  2  e  +  a  3  e  +  a  4  e  +  a
D#|-------------------------------------------------|-------------------------------------------------|
A#|-------------------------------------12p11h12p11-|/14-------12------/17-------16-------14----12----|
F#|----------------------------11~~~~11-------------|-------------------------------------------------|
C#|-------------9-----9--11/13~~~~13----------------|-------------------------------------------------|
G#|-11-------------11-------------------------------|-------------------------------------------------|
D#|-------------------------------------------------|-------------------------------------------------|


    1  e  +  a  2  e  +  a  3  e  +  a  4  e  +  a  | 1  e  +  a  2  e  +  a  3  e  +  a  4  e  +  a
D#|-------------------------------------------------|-16-14-12----12----------------------------------|
A#|-12-------11------/14-------12-------11----------|----------16----16-14-12-14-12-11-9--12-11-9--7--|
F#|-------------------------------------------------|-------------------------------------------------|
C#|-------------------------------------------------|-------------------------------------------------|
G#|-------------------------------------------------|-------------------------------------------------|
D#|-------------------------------------------------|-------------------------------------------------|


    1  e  +  a  2  e  +  a  3  e  +  a  4  e  +  a  | 1  e  +  a  2  e  +  a  3  e  +  a  4  e  +  a
D#|-------------------------------------------------|-------------------------------------------------|
A#|-------------------------------------------------|-------------------------------------------------|
F#|-9-----------------8-----------------6-----4-----|-9-----------------8-----------------6-----4-----|
C#|-------------------------------------------------|-------------------------------------------------|
G#|-------------------------------------------------|-------------------------------------------------|
D#|-------------------------------------------------|-------------------------------------------------|


    1  e  +  a  2  e  +  a  3  e  +  a  4  e  +  a  | 1  e  +  a  2  e  +  a  3  e  +  a  4  e  +  a
D#|-------------------------------------------------|-12----------------11----------------9-----7-----|
A#|-9-----------------7-----------------------------|-------------------------------------------------|
F#|-------------------------------------------------|-------------------------------------------------|
C#|-------------------------------------------------|-------------------------------------------------|
G#|-------------------------------------------------|-------------------------------------------------|
D#|-------------------------------------------------|-------------------------------------------------|


    1  e  +  a  2  e  +  a  3  e  +  a  4  e  +  a  | 1  e  +  a  2  e  +  a  3  e  +  a  4  e  +  a
D#|-------------------------------------------------|-------------------------------------------------|
A#|-------------------------------------------------|-------------------------------------------------|
F#|-9-----------------8-----------------6-----4-----|-9-----------------8-----------------6-----4-----|
C#|-------------------------------------------------|-------------------------------------------------|
G#|-------------------------------------------------|-------------------------------------------------|
D#|-------------------------------------------------|-------------------------------------------------|


    1  e  +  a  2  e  +  a  3  e  +  a  4  e  +  a  | 1  e  +  a  2  e  +  a  3  e  +  a  4  e  +  a
D#|-------------------------------------------------|-------------------------------------------------|
A#|-------------------------------------------------|-------------------9--11-------------------11-12-|
F#|-------------------9--11----------------9--11-13-|----------8--9--11----------------9--11-13-------|
C#|----------9--11-13-------------9--11-13----------|-8--9--11----------------9--11-13----------------|
G#|-9--11-13----------------11-13-------------------|-------------------------------------------------|
D#|-------------------------------------------------|-------------------------------------------------|


[Bridge]

E                F#
    It's all the same
B  B B/C# B/A# B/A# B G#m
I, I know I've been insane
               E      F#
I'm the one to blame
N.C.
Here comes the shame


[Chorus]

B                    E
  Say what you wanna say
                  F#
Do what you wanna do
              E
I'll be who I am
         F#    B
Wait til I get through
B                     E
I don't care what you say
                    G#m
Even though you disagree
           E
I am who I am
                  F#
And I'll be who I wanna be


[Last Chorus]

C                    F
  Say what you wanna say
                  G
Do what you wanna do
              F
I'll be who I am
         G     C
Wait til I get through
                      F
I don't care what you say
                    Am
Even though you disagree
           F
I am who I am
         G              C         G         Am        F
And I'll be who I wanna be


[Outro]

     G              C           G         Am         F
I'll be who I wanna be
     G              C
I'll be who I wanna be



************************************

| /  Slide up
| h  Hammer-on
| p  Pull-off
| ~  Vibrato

************************************
Suggest correction
Give kudos to tab author, rate the tab!
1 2 3 4 5
comments
print report bad tab
guest
You may want to rate the tab now too:
select rating
Wanna post a correction for this tab? Suggest correction