Oops, an error
Loading. Please wait.

Logan Long - Dream Of Me Tab

125 views 1 this week
no commentswrite comment
1 2 3 4 5
please rate
add to favorites
launch autoscroll
font size
0
reset
how to read this tab
guitar tuner
Autoscroll
slow
fast
+/-
esc
set tempo
stop
Help us to improve Ultimate-Guitar.com Take our survey!
×
Author
Difficulty
Capo
intermediate
3rd fret
-------------------------------------------------------------------------------
                             Dream of Me-Logan Long
-------------------------------------------------------------------------------
Tabbed by: loganlong
Email: loganlongmusic@gmail.com

Tuning: Standard EADGBE

*Capo on 3rd Fret*

Intro:
e|---------0----------0-------------0-----------0-------------0-----------0---|
B|-1---1----1--1---1---1----1---1----1--1---1----1----1---1----1--1---1----1--|
G|---2---2-------2---2--------0---0-------0---0---------2---2-------2---2-----|
D|-3---3-------3---3--------2---2-------2---2---------0---0-------0---0-------|
A|----------------------------------------------------------------------------|
E|----------------------------------------------------------------------------|

Intro Cont:
e|---------0-----------0---0-|
B|-1---1----1--1---1----1—-1-|
G|---0---0-------0---0-----0-|
D|---2---2-------2---2-----2-|
A|-3---3-------3---3-------3-|
E|-------------------------0-|

Verse:
e|-------------------------------------0-------------------------------------0|
B|--1---1---1---1---1---1---1---1---1--1---1---1---1---1---1---1---1---1--1--1|
G|---2---2-------0---0-------2---2-----0----2---2-------0---0-------2---2----0|
D|-3---3---3---2---2---2---0---0---0---2--3---3---3---2---2---2---0---0---0--2|
A|-------------------------------------3-------------------------------------0|
E|-------------------------------------0-------------------------------------0|

Chorus:
*Listen to strumming pattern, these are just the chords*
e|--0----0----0----0-|
B|--1----1----1----1-|
G|--2----0----2----0-|
D|--3----2----0----2-|
A|--0----0----0----3-|
E|--0----0----0----0-|

Bridge:
*Listen to strummimng pattern, chords same as chorus, but there are hammer ons on the 
fret of the high E. Listen for these.*
e|--0h2-|
B|------|
G|------|
D|------|
A|------|
E|------|

2nd Bridge after Chorus second time:
*just chords, same strumming*
e|--0----0--|
B|--1----8--|
G|--2----9--|
D|--3----10-|
A|--0----0--|
E|--0----0--|


2nd Verse:
*Just Chords, Same strumming as chorus and 2nd bridge*
e|--0----0----0----0-|
B|--1----0----1----1-|
G|--2----0----3----0-|
D|--3----2----2----2-|
A|--0----2----0----3-|
E|--0----0----0----0-|

Intro x1
Verse x1
Chorus x1
1st Bridge x1
Verse x2
Chorus x1
2nd Bridge x1
2nd Verse x2
Chorus x1
Suggest correction
Give kudos to tab author, rate the tab!
1 2 3 4 5
comments
print report bad tab
guest
You may want to rate the tab now too:
select rating
Please do not post tabs as comments. Select "correction" instead!