Oops, an error
Loading. Please wait.

Lolimnotasian - Riptide Tab

15 views 1 this week
no commentswrite comment
1 2 3 4 5
3 more votes to show rating
add to favorites
launch autoscroll
font size
0
reset
how to read this tab
guitar tuner
Autoscroll
slow
fast
+/-
esc
set tempo
stop
Help us to improve Ultimate-Guitar.com Take our survey!
×
Author
Difficulty
novice
-------------------------------------------------------------------------------
                             RIPTIDE - lolimnotasian
-------------------------------------------------------------------------------
Tabbed by: lolimnotasian
This is my first tab and its just a song I've known since I started playing.. nothing fancy xD

Riff A: (Play twice then go to B)
e|--------------------------------------------------------------------------|
B|--------------------------------------------------------------------------|
G|--------------------------------------------------------------------------|
D|-------------------------------------------2---2---2---2---2---2---2---2--|
A|---------2---2---2---2---2---2---2---2---0---3---0---3---0---3---0---3---3|
E|--12/3-0---3---0---3---0---3---0---3--------------------------------------|

Riff B:
e|--------------------------------------------------------------------------|
B|--------------------------------------------------------------------------|
G|--------------------2-----------------------------------------------------|
D|----2-3-2-2-3-3-2-3---2-3--2----------------------------------------------|
A|--3--------------------------3-3-2-------2--2-2--2-2-2-3--3-3--3-3-3------|
E|-----------------------------------3~--3----------------------------------|
                                           \(__________|2×|_________)/
Bridge: (Play then go back to Riff A)
e|-----------------------------|
B|-----------------------------|
G|-----------------------------|
D|-----------------------------|
A|--2^-p0-2^-p0-2^-p0-2p0-2p0--|**
E|-----------------------------|
**very slight bend


************************************

| /   slide up
| ^   bend up
| p   pull-off
| ~   vibrato

************************************
Suggest correction
Give kudos to tab author, rate the tab!
1 2 3 4 5
comments
print report bad tab
guest
You may want to rate the tab now too:
select rating
Wanna post a correction for this tab? Suggest correction