Oops, an error
Loading. Please wait.

Long Division - Summer Storms Tab

107 views 1 this week
no commentswrite comment
1 2 3 4 5
please rate
add to favorites
launch autoscroll
font size
0
reset
how to read this tab
guitar tuner
Autoscroll
slow
fast
+/-
esc
set tempo
stop
Help us to improve Ultimate-Guitar.com Take our survey!
×
Author
Difficulty
intermediate
-------------------------------------------------------------------------------
                             Summer Storms – Long Division
-------------------------------------------------------------------------------
Tabbed by: Robby Townsend
Email: rtown004@odu.edu

Tuning: Standard

Effects Note: Many different effects are used from varying kinds of echoes to 
Very fun song to play around and experiment with.


00:00

Guitar 1-

e|-----------------------------------------------------------------------------|
B|-----------------------------------------------------------------------------|
G|--11---11-11-11-11-11---11-11-11-11-11-------7---7-7-7-7-7---7-7-7-7-7-------|
D|--11---11-11-11-11-11---11-11-11-11-11--X8---7---7-7-7-7-7---7-7-7-7-7--X8---|
A|--9----9--9--9--9--9----9--9--9--9--9--------5---5-5-5-5-5---5-5-5-5-5-------|
E|-----------------------------------------------------------------------------|


00:13

Guitar 1- listen to song to hear pattern, similar to above

e|-----------------------------------------|
B|-----------------------------------------|
G|-11-----7-------11-----7-------4------7--|
D|-11-----7-------11-----7-------4------7--|
A|-9------5-------9------5-------2------5--|
E|-----------------------------------------|

Guitar 2-
                                           Trill
e|--------------------------------------------------------------------------|
B|-------7------10-7-8--------------7---8--7-8-10---14--15-14-19---14-15-19-|
G|---7-9--------------------------------------------------------------------|
D|---------7---------------X3-then------------------------------------------|
A|--------------------------------------------------------------------------|
E|--------------------------------------------------------------------------|


00:50

Guitar 2-
   Trill
e|--------------------|
B|--------------------|
G|-14--15----19-------|
D|--------------------| REPEAT 3 times, extend final note
A|--------------------|
E|--------------------|

Guitar 3-
                             1:10
e|------------------------------------------------------------------|
B|------------------------------------------------------------------|
G|-7-6-4---------------------7--7--777------------------------------|
D|-------7------------x2-----7--7--777--------------x2--------------| REPEAT 2 times
A|---------5-/-10-9----------5--5--555-5-/-10-9---------------------|
E|------------------------------------------------------------------|

01:10

Guitar 2
e|------------------------------|
B|-----7--------------7---------|
G|-7-9---6--7--6--7-9---6/9--7--|
D|------------------------------| REPEAT
A|------------------------------|
E|------------------------------|


01:37

Guitar 1

e|-----|
B|-----|
G|-7---|
D|-7---| Hold and create feedback.
A|-5---|
E|-----|

Guitar 3

e|---------------------------------------------------|------------------------------|
B|---------------------------------------------------|------------------------------|
G|-7---6---4---2---4---2---------4---2---------------|------------------------------|
D|-----------------------5-4-----------5-4---2-4-5---|-4-2-5----x9--------------4-2-|
A|---------------------------------------------------|------------------------------|
E|---------------------------------------------------|------------------------------|


Guitar 2 enter at 01:43
   Trill
e|-------------------------------|
B|-15-----12-----14-----10-------|
G|-------------------------------|
D|-------------------------------|
A|-------------------------------|
E|-------------------------------|


02:34

Guitar 1
                                  2:47                                        2:57
e|-------------------------------------------------------------------|
B|-------------------------------------------------------------------|
G|----------------------------------7-7-7-7-7-7-6-6-6-6-6-6--x3------|
D|-9-9-9-9-9-9-7-7-7-7-7-7---x4--------------------------------------|
A|-------------------------------------------------------------------|
E|-------------------------------------------------------------------|

Guitar 2
  Trill                          2:47         Play nothing until 2:57
e|-------------------------------------------------------------------|
B|-10----8----7----8----------------------------------14----15----19-|
G|-------------------------------------------------------------------|
D|---------------------x2--------------------------------------------|
A|-------------------------------------------------------------------|
E|-------------------------------------------------------------------|


Guitar 3

e|--------------------|
B|--------------------|
G|-7-6-4--------------|
D|--------------------|  Play until 3:00
A|--------------------|
E|--------------------|


Ends with spacey effects noises.


************************************

| /   slide up
| \   slide down
| h   hammer-on
| p   pull-off
| ~   vibrato
| +   harmonic
| x   Mute note
| b   Bend
| pb  Pre-bend
| br  Bend release
| pbr Pre-bend release
| brb Bend release bend

************************************

~~~~~~~~~~~~~~~~~~~~~~~~~~~~~~~~~~~~~~~~~~~~~~~~~~~~~~~~~~~~~~~~~~~~~~~~~~~~~~~
Long Division is a cool post-rock band from Norfolk VA. They didn't have any tabs up 
so I figured I'd post some for the guitar world to see. Hope you guys can read this and 
it! You can find the rest of their music, which I hope to tab out and submit 
later, at www.longdivisionband.com
Suggest correction
Give kudos to tab author, rate the tab!
1 2 3 4 5
comments
print report bad tab
guest
You may want to rate the tab now too:
select rating
Please do not post tabs as comments. Select "correction" instead!