Oops, an error
Loading. Please wait.

Loose Cannon - 32 Tab

844 views 3 this week
no commentswrite comment
1 2 3 4 5
please rate
add to favorites
launch autoscroll
font size
0
reset
how to read this tab
guitar tuner
Autoscroll
slow
fast
+/-
esc
set tempo
stop
Help us to improve Ultimate-Guitar.com Take our survey!
×
Author
Difficulty
novice
Intro
E|0-0-0-0-0-0-0-0-0-0-0-0-0-0-0-0-0-0-0-0-0-0-0-0--------------------|
A|5-5-5-5-5-5-5-5-7-7-7-7-7-7-7-7-9-9-9-9-9-9-9-9--------------------|
D|-------------------------------------------------------------------|
G|-------------------------------------------------------------------|
B|-------------------------------------------------------------------|
E|-------------------------------------------------------------------|

E|0-0-0-0-0-0-0-0-0-0-0-0-0-0-0-0-5----------------------------------|
A|7-7-7-7-7-7-7-7-5-5-5-5-5-5-5-5-5----------------------------------|
D|-------------------------------------------------------------------|
G|-------------------------------------------------------------------|
B|-------------------------------------------------------------------|
E|-------------------------------------------------------------------|

Chorus
E|-------------------------------------------------------------------|
A|-------------------------------------------------------------------|
D|-------------------------------------------------------------------|
G|9-9-9-9-9-9-9-9-X------------------7-7-7-7-7-7-7-7-X---------------|
B|7-7-7-7-7-7-7-7-X-9-9-9-9-9-9-9-9-X5-5-5-5-5-5-5-5-X---------------|
E|------------------7-7-7-7-7-7-7-7-X--------------------------------|

E|-------------------------------------------------------------------|
A|-------------------------------------------------------------------|
D|-------------------------------------------------------------------|
G|---------------------5---------------------------------------------|
B|7-7-7-7-7-7-7-7-X----3-----5--------7--------3---------------------|
E|5-5-5-5-5-5-5-5-X----------3--------5--------1---------------------|

Break Down
E|-------------------------------------------------------------------|
A|-------------------------------------------------------------------|
D|7-7-7-7-7-7-7-7-9-9-9-9-9-9-9-9-5-5-5-5-5-5-5-5--------------------|
G|X-X-X-X-X-X-X-X-X-X-X-X-X-X-X-X-X-X-X-X-X-X-X-X--------------------|
B|5-5-5-5-5-5-5-5-7-7-7-7-7-7-7-7-3-3-3-3-3-3-3-3--------------------|
E|-------------------------------------------------------------------|

E|-------------------------------------------------------------------|
A|-------------------------------------------------------------------|
D|5-5-5-5-5-5-5-5-7-7-7-7-7-7-7-7-9-9-9-9-9-9-9-9-5-5----------------|
G|X-X-X-X-X-X-X-X-X-X-X-X-X-X-X-X-X-X-X-X-X-X-X-X-X-X----------------|
B|3-3-3-3-3-3-3-3-5-5-5-5-5-5-5-5-7-7-7-7-7-7-7-7-3-3----------------|
E|-------------------------------------------------------------------|

Verse 1
E|--------------------------------------------------------------------|
A|--------------------------------------------------------------------|
D|--------------------------------------------------------------------|
G|--5---5----------------------------5---5----------------------------|
B|3---3-----5---5---9---9---7---7--3---3-----5---5---9--9---7---7-----|
E|--------3---3---7---7---5---5------------3---3---7--7---5---5-------|

E|--------------------------------------------------------------------|
A|--------------------------------------------------------------------|
D|--------------------------------------------------------------------|
G|5-5-5-------------------5-5-5---------------------------------------|
B|3-3-3-5-5-5-9-9-9-7-7-7-3-3-3-5-5-5-5--9-9-9-7---7------------------|
E|------3-3-3-7-7-7-5-5-5-------3-3-3-3--7-7-7-5---5------------------|

Break Down
E|-------------------------------------------------------------------|
A|-------------------------------------------------------------------|
D|7-7-7-7-7-7-7-7-9-9-9-9-9-9-9-9-5-5-5-5-5-5-5-5--------------------|
G|X-X-X-X-X-X-X-X-X-X-X-X-X-X-X-X-X-X-X-X-X-X-X-X--------------------|
B|5-5-5-5-5-5-5-5-7-7-7-7-7-7-7-7-3-3-3-3-3-3-3-3--------------------|
E|-------------------------------------------------------------------|

E|-------------------------------------------------------------------|
A|-------------------------------------------------------------------|
D|5-5-5-5-5-5-5-5-7-7-7-7-7-7-7-7-9-9-9-9-9-9-9-9-5-5----------------|
G|X-X-X-X-X-X-X-X-X-X-X-X-X-X-X-X-X-X-X-X-X-X-X-X-X-X----------------|
B|3-3-3-3-3-3-3-3-5-5-5-5-5-5-5-5-7-7-7-7-7-7-7-7-3-3----------------|
E|-------------------------------------------------------------------|

Chorus
E|-------------------------------------------------------------------|
A|-------------------------------------------------------------------|
D|-------------------------------------------------------------------|
G|9-9-9-9-9-9-9-9-X------------------7-7-7-7-7-7-7-7-X---------------|
B|7-7-7-7-7-7-7-7-X-9-9-9-9-9-9-9-9-X5-5-5-5-5-5-5-5-X---------------|
E|------------------7-7-7-7-7-7-7-7-X--------------------------------|

E|-------------------------------------------------------------------|
A|-------------------------------------------------------------------|
D|-------------------------------------------------------------------|
G|---------------------5---------------------------------------------|
B|7-7-7-7-7-7-7-7-X----3-----5--------7--------3---------------------|
E|5-5-5-5-5-5-5-5-X----------3--------5--------1---------------------|

Solo
E|-12-13-12----12-13-12----12-13-12-------------------Play-----------|
A|----------13----------13----------13-12--------------2 Times-------|
D|-------------------------------------------------------------------|
G|-------------------------------------------------------------------|
B|-------------------------------------------------------------------|
E|-------------------------------------------------------------------|

Verse 2
E|--------------------------------------------------------------------|
A|--------------------------------------------------------------------|
D|--------------------------------------------------------------------|
G|----------------3-3-3-3-3-3-3-3-5-5-5-5-5-5-5-5---------------------|
B|5-5-5-5-5-5-5-5-1-1-1-1-1-1-1-1-3-3-3-3-3-3-3-3-5-5-5-5-5-5-5-5-7---|
E|3-3-3-3-3-3-3-3---------------------------------3-3-3-3-3-3-3-3-5---|

Chorus
E|-------------------------------------------------------------------|
A|-------------------------------------------------------------------|
D|-------------------------------------------------------------------|
G|9-9-9-9-9-9-9-9-X------------------7-7-7-7-7-7-7-7-X---------------|
B|7-7-7-7-7-7-7-7-X-9-9-9-9-9-9-9-9-X5-5-5-5-5-5-5-5-X---------------|
E|------------------7-7-7-7-7-7-7-7-X--------------------------------|

E|-------------------------------------------------------------------|
A|-------------------------------------------------------------------|
D|-------------------------------------------------------------------|
G|---------------------5---------------------------------------------|
B|7-7-7-7-7-7-7-7-X----3-----5--------7--------3---------------------|
E|5-5-5-5-5-5-5-5-X----------3--------5--------1---------------------|
Suggest correction
Give kudos to tab author, rate the tab!
1 2 3 4 5
comments
print report bad tab
guest
You may want to rate the tab now too:
select rating
Wanna post a correction for this tab? Suggest correction