Oops, an error
Loading. Please wait.

Lovelikefire - A Million Pieces bass

150 views 1 this week
no commentswrite comment
1 2 3 4 5
3 more votes to show rating
add to favorites
×
Save as Personal and add changes to this tab that will be seen only by you. Learn more ›
×
You can save this tab as Personal to edit and correct it or add notes. All changes will be seen only by you. Learn more »
launch autoscroll
font size
0
reset
guitar tuner
edit
Autoscroll
slow
fast
+/-
esc
set tempo
stop
Author
Difficulty
SONG:   A Million Pieces
BAND:   LoveLikeFire
ALBUM:  Bed of Gold
YEAR:   2006
TRACK:  2
TUNING: GDAE


  Soft light, overrated
  A million pieces, integrated
  Shell shocked, be alone
  Camera-shy, you're such a voyeur


(0:28) - This looks sort of weird tabbed out, but it's just steady Cs,
         with every fourth one hammering from an open A.
G|----------------------------------------------------------------|
D|----------------------------------------------------------------|
A|----3--3--3--3--0h3--3--3--3--0h3--3--3--3--0h3--3--3--3--0h----|    ×3
E|----------------------------------------------------------------|
  Go, go, bed of gold
  Stop until it's taken over
  How soon, but you want it now
  How soon, but you want it now


(0:52)
G|--------------------------------------------------------------------/7~~~~----|
D|-------------/5~~~~-----------------------------------------------------------|
A|-----------------------3~~~~-------------------------------5~~~~--------------|    ×2
E|----3~~~~-----------------------3~~~~----4~~~~----5~~~~-----------------------|
  Love on your face
  Makeup melting off when you're waking up
  When you're crawling out
  I am all peace
  A sentimental part of misery
  Horrific to your knees


(1:21)
G|------------------------------------------------------|
D|------------------------------------------------------|
A|------------------------------------------------------|
E|----3--3--3--3--3--3--3--3--3--3--3--3--3--3--3--3----|


(1:28)
G|----------------------------------------------------------------|
D|----------------------------------------------------------------|
A|----3--3--3--3--0h3--3--3--3--0h3--3--3--3--0h3--3--3--3--0h----|    ×5
E|----------------------------------------------------------------|
  Sweet stains dripping over
  Soon, you're hiding undercover
  You feel like a cannonball
  You blow a lot
  You blow it all

  Go, go, bed of gold
  Stop until it's taken over
  How soon, but you want it now
  How soon, but you want it now


(2:05)
G|--------------------------------------------------------------------/7~~~~----|
D|-------------/5~~~~-----------------------------------------------------------|
A|-----------------------3~~~~-------------------------------5~~~~--------------|    ×2
E|----3~~~~-----------------------3~~~~----4~~~~----5~~~~-----------------------|
  Love on your face
  Makeup melting off when you're waking up
  When you're crawling out
  I am all peace
  A sentimental part of misery
  Horrific to your knees


(2:41) - solo. I think he alternates between the G on the E
               string and an octave higher on the D string.
G|------------------------------------------------------|
D|------------------------------------------------------|
A|----3--3--3--3--3--3--3--3----------------------------|    ×6
E|----------------------------3--3--3--3--3--3--3--3----|
  Go!


(3:25)
G|------------------------------------------------------|
D|------------------------------------------------------|
A|----------------------------------6--6--5--5----------|    ×5
E|----1--1--3--3--4--4--6--6--3--3--------------7--7----|


(4:02)
G|-------------------------------------|
D|-------------------------------------|
A|-------------------------------------|
E|----1--1--3--3--4--4--6--6--3~~~~----|

            
            
Suggest correction
Creating personal tab
Creating personal tab
You can edit any tab online and save it as your Personal.

You can edit, replace or remove any tab part or add personal notes – all changes will be seen only by you.

Personal tabs can be accessed anytime from any device, even offline.
Learn more »
Give kudos to tab author, rate the tab!
1 2 3 4 5
comments
print report bad tab
guest
You may want to rate the tab now too:
select rating
Wanna post a correction for this tab? Suggest correction