Oops, an error
Loading. Please wait.

Lovelikefire - Bullet Proof bass

175 views 1 this week
no commentswrite comment
1 2 3 4 5
3 more votes to show rating
add to favorites
×
Save as Personal and add changes to this tab that will be seen only by you. Learn more ›
×
You can save this tab as Personal to edit and correct it or add notes. All changes will be seen only by you. Learn more »
launch autoscroll
font size
0
reset
guitar tuner
edit
Autoscroll
slow
fast
+/-
esc
set tempo
stop
Author
Difficulty
SONG:   Bullet Proof
BAND:   LoveLikeFire
ALBUM:  Bed of Gold
YEAR:   2006
TRACK:  5
TUNING: GDAE


(0:00)
G|----------------------------|
D|----------------------------|
A|----------------------------|    ×4
E|----0>----3>----5>----3>----|


(0:20)
G|----------------------------|
D|----------------------------|
A|----------------------------|    ×4
E|----0>----3>----5>----3>----|
  Oh, I could go on
  I used to think about you every night, despite the silence
  I could sense you closer than I knew
  We're never alone, but terribly afraid
  Lose what little I could take from this
  Say it your way


(0:41)
G|----------------------------|
D|----------------------------|
A|----------------------------|    ×2
E|----0>----3>----5>----3>----|
  You've got your reasons
  I've got no reasons now
  You've got your reasons


(0:52)
G|----------------------------|
D|----------------------------|
A|----------------------------|    ×4
E|----0>----3>----5>----3>----|
  And so we sleep
  So we sleep
  So we sleep
  So we sleep


(1:12)
G|----------------------------|
D|----------------------------|
A|----------------------------|    ×4
E|----0>----3>----5>----3>----|
  Make sure he knows (?) that I cannot take it so personally
  I've had my chance to leave this broken home
  You're wasting time, you don't realize
  You're not right, I can't explain this
  But you can't shake it off


(1:34)
G|----------------------------|
D|----------------------------|
A|----------------------------|    ×2
E|----0>----3>----5>----3>----|
  You've got your reasons
  I've got no reasons now
  You've got your reasons


(1:44)
G|----------------------------|
D|----------------------------|
A|----------------------------|    ×4
E|----0>----3>----5>----3>----|
  And so we sleep
  So we sleep
  So we sleep
  So we sleep


(2:05)                               (2:14)
G|------------------------|          |------------|
D|------------------------|          |------------|
A|------------------------|    ×4    |----/7-7----|
E|----0-0----0-0-0-0-0----|          |------------|


(2:15)
G|------------------------|
D|------------------------|
A|------------------------|    ×4
E|----0-0----0-0-0-0-0----|
  White lights, outside
  Soft light, inside


(2:25)
G|----------------------------|
D|----------------------------|
A|----------------------------|    ×4
E|----0>----3>----5>----3>----|
  You've got your reasons
  I've got my reasons now
  You've got your reasons
  I've got my reasons now
  You've got your reasons
  I've got my reasons now
  You've got your reasons


(2:46)
G|----------------------------|
D|----------------------------|
A|----------------------------|    ×4
E|----0>----3>----5>----3>----|
  And so we sleep
  So we sleep
  So we sleep
  So we sleep


(3:07)
G|---------|
D|---------|
A|---------|
E|----0----|
Suggest correction
Creating personal tab
Creating personal tab
You can edit any tab online and save it as your Personal.

You can edit, replace or remove any tab part or add personal notes – all changes will be seen only by you.

Personal tabs can be accessed anytime from any device, even offline.
Learn more »
Give kudos to tab author, rate the tab!
1 2 3 4 5
comments
print report bad tab
guest
You may want to rate the tab now too:
select rating
Wanna post a correction for this tab? Suggest correction