Oops, an error
Loading. Please wait.

Lovelikefire - Skin Bones bass

219 views 1 this week
no commentswrite comment
1 2 3 4 5
3 more votes to show rating
add to favorites
×
Save as Personal and add changes to this tab that will be seen only by you. Learn more ›
×
You can save this tab as Personal to edit and correct it or add notes. All changes will be seen only by you. Learn more »
launch autoscroll
font size
0
reset
guitar tuner
edit
Autoscroll
slow
fast
+/-
esc
set tempo
stop
Author
Difficulty
SONG:   Skin & Bones
BAND:   LoveLikeFire
ALBUM:  An Ocean in the Air
YEAR:   2007
TRACK:  5
TUNING: GDAE


  Block out the noise
  It's the sound of your jaw shut, like a mousetrap


(0:34) - listen closely, the notes are played in an irregular pattern
G|----5--3--------------------------------------------|
D|----------5--3--5-----------------------------------|
A|-----------------------3--1-------------3----/15----|
E|-----------------------------3--1--3----------------|
  Scratch out the sentences you write;
  They will fade into obscurity.


(0:49) - Sort steady, but stuttered pulls on the strings
G|----------------|                  |-------------------------|
D|----------------|                  |-------------------------|
A|----------------|    ×4            |-------------------------|
E|----6>----8>----|                  |----3>----1>----8~~~~----|
  If you can't wait, it'll            when you hit the floor, who's listening anyway?
   happen without you.                Skin and bones.
  If you want, it can happen again.
  It's not happiness we're after.
  With some time, we'll make it last.


(1:29)
G|----5--3--------------------------------------------|
D|----------5--3--5-----------------------------------|
A|-----------------------3--1-------------3----/15----|   ×2
E|-----------------------------3--1--3----------------|
  Wear out your welcome like a fool has sequined skin so empty.
  Hold vacant parties that'll process through the memory and repeat. 


(1:59)
G|----------------|                  |-------------------------------------------|
D|----------------|                  |-------------------------------------------|
A|----------------|    ×4            |-------------------------------------------|
E|----6>----8>----|                  |----3>----1>----8>----3>----1>----8~~~~----|
  If you can't wait, it'll            when you hit the floor, who's listening anyway?
   happen without you.                On the day you die,
  If you want, it can happen again.   Just a souvenir by youir bedside.
  It's not happiness we're after.     Skin and bones.
  With some time, we'll make it last.


  Swim through an ocean in the air.
  There is no escape what is happening.
  Pull from your body brittle bones
  It's the symptom of possibility.


(3:16)
G|----------------|                  |-------------------------------------------|
D|----------------|                  |-------------------------------------------|
A|----------------|    ×4            |-------------------------------------------|
E|----6>----8>----|                  |----3>----1>----8>----3>----1>----8~~~~----|
  If you can't wait, it'll            when you hit the floor, who's listening anyway?
   happen without you.                On the day you die,
  If you want, it can happen again.   Just a souvenir by youir bedside.
  It's not happiness we're after.     Skin and bones.
  With some time, we'll make it last.


(4:04)
G|------------------------------------------------------|
D|------------------------------------------------------|
A|----3--1-------------3--1-------------3~~~~-----------|    ×2, to fadeout
E|----------3--1--3----------3--1--3----------3~~~~~----|
Suggest correction
Creating personal tab
Creating personal tab
You can edit any tab online and save it as your Personal.

You can edit, replace or remove any tab part or add personal notes – all changes will be seen only by you.

Personal tabs can be accessed anytime from any device, even offline.
Learn more »
Give kudos to tab author, rate the tab!
1 2 3 4 5
comments
print report bad tab
guest
You may want to rate the tab now too:
select rating
Wanna post a correction for this tab? Suggest correction