Oops, an error
Loading. Please wait.

Mad Hot Dance Hall - Sometimes Bass Tab

65 views 1 this week
no commentswrite comment
1 2 3 4 5
3 more votes to show rating
add to favorites
launch autoscroll
font size
0
reset
guitar tuner
Autoscroll
slow
fast
+/-
esc
set tempo
stop
Help us to improve Ultimate-Guitar.com Take our survey!
×
This song has interesting syncopation, since it doesn't use
eigth notes but it does use triplets. I tried to be direct,
so each character represents one triplet note (which is why
there's two dashes after most notes). Sorry if that makes it
confusing but that really helped me tab it.

Intro
G--------------|
D--------------|
A--6666666666~~
E--------------

G--------------------------------------------------|
D--------------------------------------1--1--1--1--|
A--0--0--0--0-23--3--3--3--------------------------|  x3
E--------------------------0--0--0--0--------------|

Verse
G--------------------------------------------------|
D--------1-----------1-----------1--------------1--|
A--0--4-----4--2--4-----4--0--4-----4--2--4--2-----|
E--------------------------------------------------|

G--------------------------------------------------|
D--3--1-----------1--------------------------------|
A--------3--2--3-----2--3--0-----------------------|
E--------------------------------------------------|

G--------------------------1-----------------------|
D--------1--------------1-----3--1--------------1--|
A--0--4-----4--2--4--2--------------3--2--3--2-----|
E--------------------------------------------------|

G--------------------------------------------------|
D--3--1--------1-----------------------------------|
A--------3--2-----3--2--3--0-----------------------|
E--------------------------------------------------|

Chorus
G--------------------------------------------------|
D--------------------------------------1--1--1--1--|
A--0--0--0--0-23--3--3--3--------------------------|  x2
E--------------------------0--0--0--0--------------|

G--1--1--1--1--------------------------------------|
D--------------------------------------1--1--1--1--|
A--------------3--3--3--3--------------------------|
E--------------------------0--0--0--0--------------|

G--------------------------------------------------|
D--------------------------------------1--1--1--1--|
A--0--0--0--0--3--3--3--3--------------------------|
E--------------------------0--0--0--0--------------|

Post-Chorus
G--------------------------------------------------|
D--------------------------------------------------|
A--0--0--0--0-23--3--3--3--0--0--0--0-23--3--3--3--|
E--------------------------------------------------|

G--------------------------------------1-----------|
D--------------------------3--3--3--3-----3--1-----|
A--0--0--0--0-23--3--3--3-----------------------3--|
E--------------------------------------------------|

And repeat from the Verse part til the end. A bit repetative
but I love it. Comment if I goofed.
Suggest correction
Give kudos to tab author, rate the tab!
1 2 3 4 5
comments
print report bad tab
guest
You may want to rate the tab now too:
select rating
Wanna post a correction for this tab? Suggest correction