Oops, an error
Loading. Please wait.

Manibela - Sulyap tab

2,109 views 1 this week
1 commentread comment
1 2 3 4 5
2 more votes to show rating
add to favorites
×
Save as Personal and add changes to this tab that will be seen only by you. Learn more ›
×
You can save this tab as Personal to edit and correct it or add notes. All changes will be seen only by you. Learn more »
launch autoscroll
font size
0
reset
how to read this tab
guitar tuner
edit
Autoscroll
slow
fast
+/-
esc
set tempo
stop
Title: Sulyap
Artist: Manibela
Album: Happy Stambay

For any comments and Suggestion:

Text Me: 09198408399
Friendster: boybassista@yahoo.com

Intro:
Guitar 1:

e---------------------------------------------------------------|
b---------------8-------------8-------------------------8-------|
g-444-555-/-777---444-55-/-777----444-555-/-777-/-999-----7-----|
D---------------------------------------------------------------|
A---------------------------------------------------------------|
E---------------------------------------------------------------|

Guitar 2:

e--333-------222---------|
b--333--111--333---111---|
g--000--222--444---000---|
D--000--222--444---222---|
A--222-------222---333---|
E--333-------222---------|

Verse:

Misan sa aking pag-iisa…
e--333-------222---------|
b--333--111--333---111---|
g--000--222--444---000---|
D--000--222--444---222---|
A--222-------222---333---|
E--333-------222---------|

Siguro ay nagdaramdam…
e--333-------222---------|
b--333--111--333---111---|
g--000--222--444---000---|
D--000--222--444---222---|
A--222-------222---333---|
E--333-------222---------|
Guitar 2:

e--333-------222---------|
b--333--111--333---111---|
g--000--222--444---000---|
D--000--222--444---222---|
A--222-------222---333---|
E--333-------222---------|

Guitar 2:
Tuluyang lumalapit….
e-------------------------|
b-------------------------|
g-------------------5555--|
D--555--7777--999---5555--|
A--555--7777--999---3333--|
E--333--5555--777---------|

Konting tingin mo lang..
e-------------------------|
b-------------------------|
g-------------------5555--|
D--555--7777--999---5555--|
A--555--7777--999---3333--|
E--333--5555--777---------|

Konting ngiti mo lang..
e-------------------------|
b-------------------------|
g-------------------5555--|
D--555--7777--999---5555--|
A--555--7777--999---3333--|
E--333--5555--777---------|

Adlib: G-Am-Bm-C

Verse:
Sa iyong ngiti..
e--333-------222---------|
b--333--111--333---111---|
g--000--222--444---000---|
D--000--222--444---222---|
A--222-------222---333---|
E--333-------222---------|

Pero nang sabihin mo…
e--333-------222---------|
b--333--111--333---111---|
g--000--222--444---000---|
D--000--222--444---222---|
A--222-------222---333---|
E--333-------222---------|

Ang mundo kong….
e--333-------222---------|
b--333--111--333---111---|
g--000--222--444---000---|
D--000--222--444---222---|
A--222-------222---333---|
E--333-------222---------|

Nandirito pa rin ako
e-------------------------|
b-------------------------|
g-------------------5555--|
D--555--7777--999---5555--|
A--555--7777--999---3333--|
E--333--5555--777---------|

Naghihintay…
e-------------------------|
b-------------------------|
g-------------------5555--|
D--555--7777--999---5555--|
A--555--7777--999---3333--|
E--333--5555--777---------|

Konting tingin mo lang..
e-------------------------|
b-------------------------|
g-------------------5555--|
D--555--7777--999---5555--|
A--555--7777--999---3333--|
E--333--5555--777---------|

Konting ngiti mo lang..
e-------------------------|
b-------------------------|
g-------------------5555--|
D--555--7777--999---5555--|
A--555--7777--999---3333--|
E--333--5555--777---------|


Suggest correction
Creating personal tab
Creating personal tab
You can edit any tab online and save it as your Personal.

You can edit, replace or remove any tab part or add personal notes – all changes will be seen only by you.

Personal tabs can be accessed anytime from any device, even offline.
Learn more »
Give kudos to tab author, rate the tab!
1 2 3 4 5
comments
print report bad tab
1 comment total.
0 reply
Daniel M Andres 256 Jul 27, 2008 03:38 AM

Correction lang tol ung intro mo mali masyadong mataas hehee

e-----------------3----|
b-3-4-4/-3-3-3--3------|
g----------------------| 2x
D----------------------|
A----------------------|
E----------------------|

e-------------------------|
b-3-4-/6-6/--8/10/88/66---|
g-------------------------|
D-------------------------|
A-------------------------|
E-------------------------|

Un lang naman ayos naman ung tab

guest
You may want to rate the tab now too:
select rating
Wanna post a correction for this tab? Suggest correction