Oops, an error
Loading. Please wait.

Marc Almond - Tears Runs Rings bass

417 views 1 this week
no commentswrite comment
1 2 3 4 5
3 more votes to show rating
add to favorites
×
Save as Personal and add changes to this tab that will be seen only by you. Learn more ›
×
You can save this tab as Personal to edit and correct it or add notes. All changes will be seen only by you. Learn more »
launch autoscroll
font size
0
reset
guitar tuner
edit
Autoscroll
slow
fast
+/-
esc
set tempo
stop
Author
Difficulty
Tears Runs Rings
Original artist Marc Almond.  Released in 1988 reaching the dizzy
Heights of 26 in UK charts. Tab by bass50611. Straight forward song
Any comments its bass 254@btinternet.com
30th March, re-vamp the whole song I think more or less as original

Intro:
G|-----------------------------------------------------------|
D|---------------------------1-0-------------------------1-0-|
A|-33-3--------11-1--1-0--------33-3-------11-1--1-0---------|
E|-------11-1-----------33-3---------11-1-----------33-3-----|

Verse:
G|---------------------------------------------------------|
D|-------------------0-1-11-1-0------------0-1-11-1-0------|
A|-33-3--------11-1-------------33-3------------------33-3-|
E|-------11-1------------------------11-1------------------|

G|---------------------------------------------------------|
D|------------------0-1-11-1-0------33-3---0-1-11-1-0------|
A|-33-3-------11-1-------------33-3-------------------33-3-|
E|------11-1-----------------------------------------------|


Bridge 1:             (PLAY QUAVERS)
G|---------------------------------------|
D|---------------------------------------|
A|-66666666-66666666---88888888-88888888-|
E|---------------------------------------|

Repeat Verse:

Bridge 2:       (PLAY THIS x2)
   .       .       .       .       
G|---------------------------|
D|---------------------------|
A|-6---6-6-6---6-6-6---6-6-8-|
E|---------------------------|

Solo:
G|---------------------------------------------------------------|
D|-10-10-10--------------------10-10-10--------------------------|
A|----------8-8-8-----------------------8-8-8---11-11-11---8-8-8-|
E|----------------9-9-9---8-8-8----------------------------------|

Repeat Verse:

Repeat Bridge 1:

Repeat Verse:

Repeat Bridge 2:

Repeat Verse:

Play This:
G|----------------------------------------------------------
D|------------------0-1-11-1-0-------33-3---0-1-11-1-0------
A|-33-3-------11-1-------------33-3--------------------33-3-
E|------11-11-----------------------------------------------

Outro:                                       (REPEAT TO FADE)
G|-----------------------------------------------------------|
D|-------33-3----------------1-0------33-3---------------1-0-|
A|-33-3-------11-1--1-0---------33-3-------11-1--1-0---------|
E|----------------------33-3------------------------33-3-----|

            
            
Suggest correction
Creating personal tab
Creating personal tab
You can edit any tab online and save it as your Personal.

You can edit, replace or remove any tab part or add personal notes – all changes will be seen only by you.

Personal tabs can be accessed anytime from any device, even offline.
Learn more »
Give kudos to tab author, rate the tab!
1 2 3 4 5
comments
print report bad tab
guest
You may want to rate the tab now too:
select rating
Wanna post a correction for this tab? Suggest correction