Oops, an error
Loading. Please wait.

Marcanta - Concerning Hobbits Tab

949 views 3 this week
1 commentread comment
1 2 3 4 5
please rate
add to favorites
launch autoscroll
font size
0
reset
how to read this tab
guitar tuner
Autoscroll
slow
fast
+/-
esc
set tempo
stop
Help us to improve Ultimate-Guitar.com Take our survey!
×
Difficulty
intermediate
(/) Slide Up  (\) Slide Down  (h) Hammer On  (p) Pull Off  (b) Bend (r) Release (v) Vibrato


E|-----------------------------------------------------------7--10--9--|
B|--------3X----------3X--3--5--7--10--7--5--3--------7--10------------|
G|-----2X----2X----2X----------------------------------------0---------|
D|--0X----------0X--------------0------0-----0--0--0-------------------|
A|---------------------------------------------------------------------|
E|---------------------------------------------------------------------|


E|---------------------------------------------------------------------|
B|--10--7--8p7--5------------------------------------------------------|
G|---------------------------------------------------------------------|
D|------0-------7------------------------------------------------------|
A|---------------------------------------------------------------------|
E|---------------------------------------------------------------------|

E|----------------------------------------------7-------7---------------------|
B|--3h5--5/7---10--7\5--3--3h5p3---------7--10------------10--7--5--------5\2-|
G|----------------------------------------------0--0--0-----------------------|
D|-------0---------0--------------0--0-----------------------------7--7--7----|
A|----------------------------------------------------------------------------|
E|----------------------------------------------------------------------------|


E|--------------------------------2-----------2/5--5--------------------------|
B|--------3X----------3X-----3h5--------3-------------7p5\3--5--------------2-|
G|-----2X----2X----2X----2X----------2-----2--------------------2------2h4----|
D|--0X----------0X-----------0-------------------------------------2----------|
A|-------------------------------------------------0------------------2-------|
E|----------------------------------------------------------------------------|

                                                                     ^
                                 ^              ^                    |
                                 |              |              Bar 2nd fret
                                 |              |
                                 |              |
                                 |              |
                                 |              |
                                 | Slide 1st and 2nd string with 2nd finger
                                 |

                        Bar 2nd fret        1st finger
                        2nd string 3rd fret 2nd finger
                        3h5 with            4th finger



E|---------------------------------------|
B|-----2-----3--3------------------------|
G|-------------------------2-------------|
D|-----------------4----------2----------|
A|--2-----2--2--2--0--0----------0-------|
E|---------------------------------------|


E|--------2-----------2/5--5-----------------------------0h2-------------|
B|---3h5--------3-------------7p5--3--5--2-----2h3p2--0------------------|
G|-----------2-----2-----------------------------------------------------|
D|---0-------------------------------------------------------------------|
A|-------------------------0----------------0---------2----------2--2--2-|
E|-----------------------------------------------------------------------|


E|--7h9--10----9-------------------------------|
B|----------------------10--7-----7h8p7--5-----|
G|---------------------------------------------|
D|-------0--0-----0--0-------------------------|
A|--------------------------0--0---------0--0--|
E|---------------------------------------------|


E|---------------------------------------------------------------|
B|--3h5--7----------------10-----5-----3h5--7X--7X--7X--7X--5h7--|
G|-------------------7h9-----------------------------------------|
D|-------------------------0--0----------------------------------|
A|-------------------------------0--0-------5X--5X--5X--5X--5----|
E|-------7--7--7--7----------------------------------------------|

                                             ^
                                             |
                                             |
                                        Bar 5th fret


E|----------------------------------------------|
B|--9X--9X--9X--9X---7h9--11--11--11--11-11-11--|
G|----------------------------------------------|
D|----------------------------------------------|
A|--7X--7X--7X--7X---7----9---9---9---9--9--9---|
E|----------------------------------------------|




https://www.youtube.com/watch?v=sgOc_VnZYEw
comments
We did not receive enough feedback on this tab! Please rate:
print report bad tab
1 2 3 4 5
1 comment total.
0 reply
rbrowndctalk 11 wrote on April 24 2014, 04:04 pm

This is probably my favorite version of this song. Thanks for posting the tabs. It is 100% awesome!!

I want to post or [tab]
guest
You may want to rate the tab now too:
select rating
Please do not post tabs as comments. Select "correction" instead!