Oops, an error
Loading. Please wait.

Maria Cafra - Cool Ka Lang Pare Bass Tab

765 views 1 this week
no commentswrite comment
1 2 3 4 5
please rate
add to favorites
launch autoscroll
font size
0
reset
guitar tuner
Autoscroll
slow
fast
+/-
esc
set tempo
stop
Help us to improve Ultimate-Guitar.com Take our survey!
×
Author
Verse I:

G|------------|------------|------------|----------|
D|---------45-|---------45-|---------45-|----------|
A|---5---57---|---5---57---|---5---57---|-5--------|
E|-3---3------|-3---3------|-3---3------|------3---|

Verse II:

G|------------|------------|------------|----------|
D|---------45-|---------45-|---------45-|----------|
A|---5---57---|---5---57---|---5---57---|-5--------|
E|-3---3------|-3---3------|-3---3------|------3---|

Chorus:

G|------------------------|------------------------|
D|------5h7-5-------5h7-5-|------------------------|
A|-3-5h7-------3-5h7------|------5h7-5-------5h7-5-|
E|------------------------|-3-5h7-------3-5h7------|

G|------------------------|----------------------|
D|------------------------|------7h9-7-----------|
A|------7h9-h-------7h9-7-|-5-7h9-------5--------|
E|-5-7h9-------5-7h9------|----------------------|

Verse III: Repeat Verse I pattern

Verse IV: Repeat Verse I pattern

Chorus: Repeat Chorus pattern

Adlib:

G|---------------|---------------|------------|----------|
D|---------------|---------------|------------|----------|
A|----5-----5----|----5-----5----|----5-----3-|----------|
E|-3-----3---025-|-3-----3---025-|-3-----3----|-3--------| 2x

Verse V: Repeat Verse I pattern

Verse VI: Repeat Verse I pattern

Chorus: Repeat Chorus pattern

Outro: 

G|------------------------|------------------------|
D|------5h7-5-------5h7-5-|------------------------|
A|-3-5h7-------3-5h7------|------5h7-5-------5h7-5-|
E|------------------------|-3-5h7-------3-5h7------|


G|------------------------|---------|
D|------5h7-5-------------|---------|
A|-3-5h7-------3----5-----|---------|
E|------------------------|-3-------|
Suggest correction
Give kudos to tab author, rate the tab!
1 2 3 4 5
comments
print report bad tab
guest
You may want to rate the tab now too:
select rating
Please do not post tabs as comments. Select "correction" instead!