Oops, an error
Loading. Please wait.

Maria Cafra - Hatsing Hatsing Bass Tab

244 views 1 this week
no commentswrite comment
1 2 3 4 5
3 more votes to show rating
add to favorites
launch autoscroll
font size
0
reset
guitar tuner
Autoscroll
slow
fast
+/-
esc
set tempo
stop
Help us to improve Ultimate-Guitar.com Take our survey!
×
Author
Intro:

G|-----------|----------|--------------|-------6h8-9-|
D|-----------|----------|--------------|----7h9------|
A|-----------|----------|-7---7--------|-7-----------|
E|-----------|----------|---7--7-7h9-7-|-------------|

Verse I:

G|-----------------|---------------|------6h8---------|---------------|
D|-----------------|---------------|-6----------4h6-6-|---------------|
A|-7---5h7---------|-6---6---6h8-6-|---6-6------------|-4---4---4h6-4-|
E|---7-------7h9-7-|---6-----------|------------------|---4-----------|

G|------4h6-------|------------|
D|-------------4--|------------|
A|---4-4------4-4-|-2--------6-|
E|-2--------------|---------7--|

G|--------------|-------6h8-9-|
D|--------------|----7h9------|
A|-7---7--------|-7-----------|
E|---7--7-7h9-7-|-------------|

Verse II:

G|-----------------|---------------|------6h8---------|---------------|
D|-----------------|---------------|-6----------4h6-6-|---------------|
A|-7---5h7---------|-6---6---6h8-6-|---6-6------------|-4---4---4h6-4-|
E|---7-------7h9-7-|---6-----------|------------------|---4-----------|

G|------4h6-------|------------|
D|-------------4--|------------|
A|---4-4------4-4-|-2--------6-|
E|-2--------------|---------7--|

G|--------------|-------6h8-9-|
D|--------------|----7h9------|
A|-7---7--------|-7-----------|
E|---7--7-7h9-7-|-------------|

Chorus:

G|----------6h8-|----------4h6-|
D|--------------|--------------|
A|-6---4h6-6----|-4---2h4-4----|
E|---6----------|---4----------| 3x

G|----------6h8-|--------------|
D|--------------|--------------|
A|-6---4h6-6----|-9~---------6-|
E|---6----------|---77------7--|

Adlib:

G|-----------------|---------------|------6h8---------|---------------|
D|-----------------|---------------|-6----------4h6-6-|---------------|
A|-7---5h7---------|-6---6---6h8-6-|---6-6------------|-4---4---4h6-4-|
E|---7-------7h9-7-|---6-----------|------------------|---4-----------|

G|------4h6-------|------------|
D|-------------4--|------------|
A|---4-4------4-4-|-2--------6-|
E|-2--------------|---------7--|

Chorus:

G|--------------|-------6h8-9-|
D|--------------|----7h9------|
A|-7---7--------|-7-----------|
E|---7--7-7h9-7-|-------------|

G|----------6h8-|----------4h6-|
D|--------------|--------------|
A|-6---4h6-6----|-4---2h4-4----|
E|---6----------|---4----------| 3x

G|----------6h8-|--------------|
D|--------------|--------------|
A|-6---4h6-6----|-9~---------6-|
E|---6----------|---77------7--|

Verse III:


G|-----------------|---------------|------6h8---------|---------------|
D|-----------------|---------------|-6----------4h6-6-|---------------|
A|-7---5h7---------|-6---6---6h8-6-|---6-6------------|-4---4---4h6-4-|
E|---7-------7h9-7-|---6-----------|------------------|---4-----------|

G|------4h6-------|------------|
D|-------------4--|------------|
A|---4-4------4-4-|-2--------6-|
E|-2--------------|---------7--|

G|--------------|-------6h8-9-|
D|--------------|----7h9------|
A|-7---7--------|-7-----------|
E|---7--7-7h9-7-|-------------|

Outro:

G|--------------|-------6h8-9-|
D|--------------|----7h9------|
A|-7---7--------|-7-----------|
E|---7--7-7h9-7-|-------------|

G|-----------|----------|--------------|-------6h8-9-|------|
D|-----------|----------|--------------|----7h9------|------|
A|-----------|----------|-7---7--------|-7-----------|-7~~~-|
E|-----------|----------|---7--7-7h9-7-|-------------|------|

Ha – ha – hatsing!
Suggest correction
Give kudos to tab author, rate the tab!
1 2 3 4 5
comments
print report bad tab
guest
You may want to rate the tab now too:
select rating
Wanna post a correction for this tab? Suggest correction