Oops, an error
Loading. Please wait.

Maria Cafra - Karanasan Bass Tab

739 views 3 this week
no commentswrite comment
1 2 3 4 5
3 more votes to show rating
add to favorites
launch autoscroll
font size
0
reset
guitar tuner
Autoscroll
slow
fast
+/-
esc
set tempo
stop
Help us to improve Ultimate-Guitar.com Take our survey!
×
Author
Intro: 
G|-------------|----------|-------------|----------|
D|-------------|-75-------|-------------|----------|
A|----4h5-7-87-|----875---|-------3-----|----------|
E|-55----------|--------8-|-00-3h5--5-3-|-55-3h5---|
                          |                        |
                          | or, octave, as follows:|  
                          |-------5-----|----------|
                          |----5h7--7-5-|-77-5h7---|
                          |-77----------|----------|
                          |-------------|----------|

Verse I:
				     1._________  2._________
G|-----------|-99h10-----|----------|-----------||-----------|
D|o----------|-----------|----------|----------o||-----------|
A|o----------|---------8-|-7--------|----------o||-----------|
E|--5--------|-----------|--------0-|-5------0--||-5---------| Then, do Intro pattern

Verse II:
				       1.__________  2._________
G|- ----------|-----------|-----------|------------||-----------|
D|o-----------|-----------|-----------|---------7-o||-----------|
A|o---------7-|-8-888---8-|-7-777---7-|-5-555-----o||-5-555-----|
E|--5-555-----|-----------|-----------|------------||-----------|

Chorus:
G|--------|---------|---------|---------|
D|-----23-|-5-------|---------|-----899-|
A|-3-33---|---------|---------|-7-10----|
E|--------|---333-2-|-1-111-7-|---------|

G|--------|---------|---------|----79-7-|-----------|-----------|
D|-----23-|-5-------|---------|---9-----|-10-9-12-9-|-10-9------|
A|-3-33---|---------|---------|-7-------|-----------|------10-7-|
E|--------|---333-2-|-1-111-7-|---------|----------—|-----------| 1, 2. . .

Adlib:
G|-----------|-------------|
D|----7----5-|----3---10-9-|
A|-----------|-------------|
E|-55x--33x--|-11x----8--7-| 8x.  Then, do Intro pattern

Verse III: Do first 8 bars of Verse I (that is, except Intro pattern)

Chorus:
G|--------|---------|---------|----7-9-7-----|
D|-----23-|-5-------|---------|---9------9---|
A|-3-33---|---------|---------|-7----------7-|
E|--------|---333-2-|-1-111-7-|--------------| 4x

Outro:
G|----------|--------|
D|----------|--------|
A|----------|--------|
E|-8---10---|-8---77-| Then, do Intro pattern
Suggest correction
Give kudos to tab author, rate the tab!
1 2 3 4 5
comments
print report bad tab
guest
You may want to rate the tab now too:
select rating
Wanna post a correction for this tab? Suggest correction